Oops, an error
Loading. Please wait.

Oceans Bass

745 views 12 this week
no commentswrite comment
1 2 3 4 5
x 4
add to favorites
launch autoscroll
font size
0
reset
guitar tuner
×
Best way to learn
"Oceans"
Autoscroll
slow
fast
+/-
esc
set tempo
stop
Author
[Verse] x2

G|---------------------------------------------------------------------------|
D|---------------------------------------------------------------------------|
A|-----------------0000000000000000-5555555555555555------333-------00--55---|
E|1111111111111111-----------------------------------33------111-------------|

G|---------------------------------------------------------------------------|
D|---------------------------------------------------------------------------|
A|0000000000000000-----------------------------------------------------------|
E|----------------------11111111---------------------------------------------|


[Chorus]

G|---------------------------------------------------------------------------|
D|---------------------------------------------------------------------------|
A|-----------------5555555555555555-2222222222222222-333333333333333---------|
E|1111111111111111-----------------------------------------------------------|

G|---------------------------------------------------------------------------|
D|---------------------------------------------------------------------------|
A|-----------------2222222222222222-------------------2222222233333333-------|
E|1111111111111111------------------3333333333333333-------------------1-----|


[Verse] x2

G|---------------------------------------------------------------------------|
D|---------------------------------------------------------------------------|
A|-----------------0000000000000000-5555555555555555------333-------00--55---|
E|1111111111111111-----------------------------------33------111-------------|

G|---------------------------------------------------------------------------|
D|---------------------------------------------------------------------------|
A|0000000000000000-----------------------------------------------------------|
E|----------------------11111111---------------------------------------------|


[Chorus]

G|---------------------------------------------------------------------------|
D|---------------------------------------------------------------------------|
A|-----------------5555555555555555-2222222222222222-333333333333333---------|
E|1111111111111111-----------------------------------------------------------|

G|---------------------------------------------------------------------------|
D|---------------------------------------------------------------------------|
A|-----------------2222222222222222-------------------2222222233333333-------|
E|1111111111111111------------------3333333333333333-------------------1-----|



[Bridge 1]

G|-------------------------------------------------------------------------------------------|
D|-------------------------------------------------------------------------------------------|
A|----------------------------------------------------0000000000000000-----------------------|
E|-33333333333333333333333333333333--1111111111111111------------------1111111111111111------|


[Chorus]

G|---------------------------------------------------------------------------|
D|---------------------------------------------------------------------------|
A|-----------------5555555555555555-2222222222222222-333333333333333---------|
E|1111111111111111-----------------------------------------------------------|

G|---------------------------------------------------------------------------|
D|---------------------------------------------------------------------------|
A|-----------------2222222222222222-------------------2222222233333333-------|
E|1111111111111111------------------3333333333333333-------------------1-----|



[Bridge 2]

G|---------------------------------------------------------------------------|
D|---------------------------------------------------------------------------|
A|5555555555555555-----------------------------------3333333333333333--------|
E|-----------------1111111111111111-3333333333333333-------------------------|


[Outro]

G|---------------------------------------------------------------------------|
D|---------------------------------------------------------------------------|
A|5555555555555555------------------2222222222222222-------------------------|
E|-----------------3333333333333333------------------------------------------|

G|---------------------------------------------------------------------------|
D|---------------------------------------------------------------------------|
A|33333333----------3333333333333333-----------------------------------------|
E|---------33333333------------------1---------------------------------------|


V   C   V   C   B1   C   B2   O
Suggest correction
comments
print report bad tab
guest
You may want to rate the tab now too:
select rating
Wanna post a correction for this tab? Suggest correction