Oops, an error
Loading. Please wait.

Oceans Tab

802 views 60 this week
2 commentsread comments
1 2 3 4 5
x 4
add to favorites
launch autoscroll
font size
0
reset
how to read this tab
guitar tuner
Autoscroll
slow
fast
+/-
esc
set tempo
stop
Help us to improve Ultimate-Guitar.com Take our survey!
×
Author
Difficulty
intermediate
there are a couple areas in the chorus i'm not completely sure about but for the rest i'm 99% sure this
is right.

[Intro]

e|---------------------------------------------------------------------------|
B|---------------------------------------------------------------------------|
G|---------------------------------------------------------------------------|
D|----h2-----2-4-6-----------------------------------------------------------|
A|--2----2-4-----------------------------------------------------------------|
E|---------------------------------------------------------------------------|


[Verse 1]

e|-|PM-----------------------|----------------------------PM-----------------|
B|---------------------------------------------------------------------------|
G|---------6-------2-------4--------9-9-8-8-8-6-6-6-4-4-4--------------------|
D|-2-------6-(x16)-2-(x8)--4-(x8)---x-x-x-x-x-x-x-x-x-x-x-2------------------|
A|-2-(x16)-4-------0-------2--------7-7-6-6-6-4-4-4-2-2-2-2-(x24)------------|
E|-0------------------------------------------------------0------------------|

e|---------------------------------------------------------------------------|
B|---------------------------------------------------------------------------|
G|---------------------------------------------------------------------------|
D|----h2----2----------------------------------------------------------------|
A|--2---2-4---4-2------------------------------------------------------------|
E|---------------------------------------------------------------------------|

repeat the verse but end with the intro instead

[Chorus]

e|---------------------------------------------------------------------------|
B|---------------------------------------------------------------------------|
G|---------6-------2------------------------------------6--------------------|
D|-2-------6-(x16)-2-(x16)-4-4-6-6-4-6-6-4------2-------6-(x16)--4(6)--------|
A|-2-(x16)-4-------0-------4-4-4-4-4-4-4-4-(x2)-2-(x16)-4--------4-(x16)-----|
E|-0-----------------------2-2-2-2-2-2-2-2------0----------------2-----------|

e|---------------------------------------------------------------------------|
B|---------------------------------------------------------------------------|
G|-2------4------------------------------------------------------------------|
D|-2-(x8)-4-(x8)-------------------------------------------------------------|
A|-0------2------------------------------------------------------------------|
E|---------------------------------------------------------------------------|


[Verse 2]

e|-|PM--------------|-----------------------------PM-------------------------|
B|---------------------------------------------------------------------------|
G|---------6-----------------------------------------------------------------|
D|-2-------6-(x16)-4-------------------------------2--------2----2-4-2-------|
A|-2-(x16)-4-------4-(x16)---7-7-6-6-6-4-4-4-2-2-2-2-(x24)----2-4------------|
E|-0---------------2-------------------------------0-------------------------|

e|-|PM-----------------------|---------------------------------PM------------|
B|---------------------------------------------------------------------------|
G|---------6----------------4------9-9-8-8-8-13-13-13-11-11-11---------------|
D|-2-------6-(x16)-4------6-4-(x8)-x-x-9-9-9-x--x--x--x--x--x---2------------|
A|-2-(x16)-4-------4-(x7)-6-2------7-7-6-6-6-11-11-11-9--9--9---2-(x24)------|
E|-0---------------2------4-------------------------------------0------------|

e|---------------------------------------------------------------------------|
B|---------------------------------------------------------------------------|
G|---------------------------------------------------------------------------|
D|--2-----2-4-6--------------------------------------------------------------|
A|----2-4--------------------------------------------------------------------|
E|---------------------------------------------------------------------------|


[Bridge]

e|------------------------------------------------0--PM----------------------|
B|------------------------------------------------x--------------------------|
G|-7-------4------6------8------9------8-9-11-12--x--------------------------|
D|-7-(x32)-4-(x8)-6-(x8)-x-(x4)-x-(x4)-x-x-x--x---2--2-------2---------------|
A|-5-------2------4------6------7------6-7-9--10--2--2-(x23)-2---------------|
E|------------------------------------------------0--0-------0---------------|

[Outro]

e|---------------------------------------------------------------------------|
B|---------------------------------------------------------------------------|
G|-6---------------2-------4-------6---------------2-------4------6----------|
D|-6-(x16)-4-------2-(x16)-4-(x16)-6-(x16)-4-------2-(x16)-4-(x8)-6-(x8)-----|
A|-4-------4-(x16)-0-------2-------4-------4-(x16)-0-------2------4----------|
E|---------2-------------------------------2---------------------------------|

e|--------------------------0------------------------------------------------|
B|--------------------------x------------------------------------------------|
G|-8------9------8-9-11-12--x------------------------------------------------|
D|-x (x4)-x-(x4)-x-x-x--x---2------------------------------------------------|
A|-6------7------6-7-9--10--2------------------------------------------------|
E|--------------------------0------------------------------------------------|

order: 
verse 1
chorus
verse 2
chorus
bridge 
chorus
outro

Suggest correction
comments
print report bad tab
2 comments total.
0 reply
chumisfum6789 145 Nov 02, 2016 02:50 PM

This tab is dooooooooooooope! Pretty freaking accurate, gj.

0 reply
supersweetskl 10 Nov 12, 2016 02:51 PM

I've been waiting for someone to make a tab for this forever! This is awesome.

guest
You may want to rate the tab now too:
select rating
Wanna post a correction for this tab? Suggest correction