Oops, an error
Loading. Please wait.

Oceans Ukulele

1,105 views 30 this week
no commentswrite comment
1 2 3 4 5
x 6
add to favorites
launch autoscroll
font size
0
reset
transpose
0
reset
simplify chords
display chords
guitar tuner
Autoscroll
slow
fast
+/-
esc
set tempo
stop
Author
Difficulty
novice
About this tab version
Chords and tabs for the song. Was this info helpful? Yes No
Strumming Is this strumming pattern correct? Yes No
120 bpm
1
&
2
&
3
&
4
&
Listen
A|------------0-|
E|--1-----1-3---|
C|0---0-2-------|
G|--------------|

[Verse 1]
F                         Am Dm
There’s still a part of me
                            Gm C
that needs to look the same way

A|----------------------|
E|1-1-0-0-0-------------|
C|----------2-2-2-0-0-0-|
G|----------------------|

          F
into your eyes…
F
The world may fall apart

A|------------|
E|1-----1-----|
C|--0-2---2-0-|
G|------------|

F                Am Dm
I hate everything
that waits outside my door,
Gm          C     
but locked inside 

A|----------------------|
E|1-1-0-0-0-------------|
C|----------2-2-2-0-0-0-|
G|----------------------|

          F
I’ll be alright, alright, alright, alright

A|----------0-|
E|1-----1-3---|
C|--0-2-------|
G|------------|

[Chorus]
F                          Dm
Honestly I’m convinced the best of me is the worst of me
Bb                                             C6
Believe me I’ve tried but I just can’t seem to fight
F                                  Bb
Against the tide and undertow that drag me down
Gm                                       Bb  C       F
So low beneath the foam I can’t feel the sun burn my eyes


[Verse 2]
F                         Am Dm
You’re still a part of me,
                           Gm        C
the only part I enjoy, and I, I wish I

A|----------------------|
E|1-1-0-0-0-------------|
C|----------2-2-2-0-0-0-|
G|----------------------|

              F
I still had a hold on you like you do,
until you’re blue, around my throat

A|------------|
E|1-----1-3-1-|
C|--0-2-------|
G|------------|

F                         Am Dm
Things don’t feel the same
like they did back then
Gm          C    
but I don’t mind…

A|----------0-0-0-1-1-1-|
E|1-1-3-3-3-------------|
C|----------------------|
G|----------------------|
'Cause the past don’t mean
F
shit to me, shit to me, shit to me, shit to me
(Now that’s a lie.)

A|----------0-|
E|1-----1-3---|
C|--0-2-------|
G|------------|


[Chorus]
F                          Dm
Honestly I’m convinced the best of me is the worst of me
Bb                                             C6
Believe me I’ve tried but I just can’t seem to fight
F                                  Bb
Against the tide and undertow that drag me down
Gm                                       Bb  C
So low beneath the foam I can’t feel the sun burn


[Bridge]
Cm
I sank to the bottom
Sank to the bottom

A|------------------------------------------------------0------|
E|--------------------------------0-0-0-0-1-1-1-1-0-1-3---3-1-1|
C|0-0-0-0-0-0-0-0-2-2-2-2-2-2-2-2------------------------------|
G|-------------------------------------------------------------|
like a stone


F
Oh the things I’ve done to me


[Chorus]
F                          Dm
Honestly I’m convinced the best of me is the worst of me
Bb                                             C6
Believe me I’ve tried but I just can’t seem to fight
F                                  Bb
Against the tide and undertow that drag me down
Gm                                       Bb Am
So low beneath the foam I can’t feel the sun

[Bridge]
Dm
I sank to the bottom
I sank to the bottom
       F
of the ocean
Gm       C
like a stone


[Outro]
Dm
Wish I was good enough
             Gm
I wish I was good enough
                Bb
I’ve never been good enough

A|------------------------------------------------------0-----0|
E|--------------------------------0-0-0-0-1-1-1-1-0-1-3---3-1-1|
C|0-0-0-0-0-0-0-0-2-2-2-2-2-2-2-2-----------------------------0|
G|------------------------------------------------------------2|
for your love
Suggest correction
comments
print report bad tab
guest
You may want to rate the tab now too:
select rating
Wanna post a correction for this tab? Suggest correction