Oops, an error
Loading. Please wait.

Veins Veins Veins tab

976 views 18 this week
1 commentread comment
1 2 3 4 5
x 3
add to favorites
×
Save as Personal and add changes to this tab that will be seen only by you. Learn more ›
×
You can save this tab as Personal to edit and correct it or add notes. All changes will be seen only by you. Learn more »
launch autoscroll
font size
0
reset
how to read this tab
guitar tuner
edit
Autoscroll
slow
fast
+/-
esc
set tempo
stop
Tuned down half a step

eb|--------------------------------------|
Bb|--------------------------------------|
Gb|-99999999-----------------------------|
Db|-99999999-99999999--------------------| x3
Ab|-77777777-99999999--------------------|
Eb|----------77777777--------------------|

eb|--------------------------------------|
Bb|--------------------------------------|
Gb|-99999999-----------------------------|
Db|-99999999-9999-555-4------------------|
Ab|-77777777-9999-555-4------------------|
Eb|----------7777-333-2------------------|

eb|--------------------------------------|
Bb|-457-4574-----------------------------|
Gb|--------------------------------------|
Db|--------------------------------------|
Ab|---------------------232xx--23--------|
Eb|-------------------------------32-----|
Though we've barely survived

eb|--------------------------------------|
Bb|--------------------------------------|
Gb|-----------7777-----------------------|
Db|-2222-7777-7777-5555-4444-------------|
Ab|-2222-7777-5555-5555-4444-------------|
Eb|-0000-5555------3333-2222-------------|
I feel ashamed of where I've been

eb|-----------------------------------------------|
Bb|-----------------------------------------------|
Gb|------------444445-444445-777778-7777-11111111-|
Db|-2222-7777--444445-444445-777778-7777-11111111-|
Ab|-2222-7777--222223-222223-555556-5555-9-9-9-9--|
Eb|-0000-5555-------------------------------------|
Oh, to be a motherless child

[Chorus]
eb|--------------------------------------|
Bb|--------------------------------------|
Gb|------7777----------------------------|
Db|-5555-7777-4444---9-7-----------------|
Ab|-5555-5555-4444---9-7-----------------|
Eb|-3333------2222---7-5-----------------|
Your weaknesses

eb|--------------------------------------|
Bb|--------------------------------------|
Gb|------7777----------------------------|
Db|-5555-7777-7777777-4------------------|
Ab|-5555-5555-7777777-4------------------|
Eb|-3333------5555555-2------------------|
In my dreams

eb|--------------------------------------|
Bb|--------------------------------------|
Gb|------7777----------------------------|
Db|-5555-7777-4444---9-7-----------------|
Ab|-5555-5555-4444---9-7-----------------|
Eb|-3333------2222---7-5-----------------|
And when I'm not sure

eb|--------------------------------------|
Bb|--------------------------------------|
Gb|------7777----------------------------|
Db|-5555-7777-7777777--------------------|
Ab|-5555-5555-7777777--------------------|
Eb|-3333------5555555--------------------|
Haunt me in my sleep

eb|--------------------------------------|
Bb|--------------------------------------|
Gb|-99999999-----------------------------|
Db|-99999999-99999999--------------------| x3
Ab|-77777777-99999999--------------------|
Eb|----------77777777--------------------|
I know you're there

eb|--------------------------------------|
Bb|--------------------------------------|
Gb|-99999999-----------------------------|
Db|-99999999-9999-555-4------------------|
Ab|-77777777-9999-555-4------------------|
Eb|----------7777-333-2------------------|

eb|--------------------------------------|
Bb|-457-4574-----------------------------|
Gb|--------------------------------------|
Db|--------------------------------------|
Ab|---------------------232xx--23--------|
Eb|-------------------------------32-----|
Try to starve the devil inside

eb|--------------------------------------|
Bb|--------------------------------------|
Gb|-----------7777-----------------------|
Db|-2222-7777-7777-5555-4444-------------|
Ab|-2222-7777-5555-5555-4444-------------|
Eb|-0000-5555------3333-2222-------------|
This bitter pill I've swallowed down

eb|--------------------------------------|
Bb|--------------------------------------|
Gb|-----------44444444--7777-11111111----|
Db|-2222-7777-44444444--7777-11111111----|
Ab|-2222-7777-22222222--5555-9-9-9-9-----|
Eb|-0000-5555----------------------------|
Is greeted by

[Chorus]
eb|--------------------------------------|
Bb|--------------------------------------|
Gb|------7777----------------------------|
Db|-5555-7777-4444---9-7-----------------|
Ab|-5555-5555-4444---9-7-----------------|
Eb|-3333------2222---7-5-----------------|
Your weaknesses

eb|--------------------------------------|
Bb|--------------------------------------|
Gb|------7777----------------------------|
Db|-5555-7777-7777777-4------------------|
Ab|-5555-5555-7777777-4------------------|
Eb|-3333------5555555-2------------------|
In my dreams

eb|--------------------------------------|
Bb|--------------------------------------|
Gb|------7777----------------------------|
Db|-5555-7777-4444---9-7-----------------|
Ab|-5555-5555-4444---9-7-----------------|
Eb|-3333------2222---7-5-----------------|
And if I'm not sure

eb|--------------------------------------|
Bb|--------------------------------------|
Gb|------7777----------------------------|
Db|-5555-7777-777777777777777------------|
Ab|-5555-5555-777777777777777------------|
Eb|-3333------555555555555555------------|
See you in my

eb|--------------------------------------|
Bb|--------------------------------------|
Gb|-77777777-----------------------------|
Db|-77777777-77777777--------------------|x3
Ab|-55555555-77777777--------------------|
Eb|----------55555555--------------------|
Night on the floor

eb|--------------------------------------|
Bb|--------------------------------------|
Gb|--------------------------------------|
Db|-55555555-77777777--------------------|
Ab|-55555555-77777777--------------------|
Eb|-33333333-55555555--------------------|
Anymore

eb|--------------------------------------|
Bb|--------------------------------------|
Gb|-77777777-----------------------------|
Db|-77777777-77777777--------------------|x3
Ab|-55555555-77777777--------------------|
Eb|----------55555555--------------------|
That's just fine

eb|--------------------------------------|
Bb|--------------------------------------|
Gb|----------77777777--------------------|
Db|-55555555-77777777--3-5-4-3-2-3-5-3-2-|
Ab|-55555555-55555555--3-5-4-3-2-3-5-3-2-|
Eb|-33333333-----------5-3-2-1-0-1-3-1-0-|
You or nothing
Suggest correction
Creating personal tab
Creating personal tab
You can edit any tab online and save it as your Personal.

You can edit, replace or remove any tab part or add personal notes – all changes will be seen only by you.

Personal tabs can be accessed anytime from any device, even offline.
Learn more »
Give kudos to tab author, rate the tab!
1 2 3 4 5
comments
print report bad tab
1 comment total.
0 reply
bl00dinfections 10 Apr 30, 2017 02:08 PM

sounds accurate 90%! Not sure about the beginning, sounds different from the recording, but that could just be me.

guest
You may want to rate the tab now too:
select rating
Wanna post a correction for this tab? Suggest correction