Oops, an error
Loading. Please wait.

World Destroyer tab

1,507 views 27 this week
2 commentsread comments
1 2 3 4 5
x 3
add to favorites
×
Save as Personal and add changes to this tab that will be seen only by you. Learn more ›
×
You can save this tab as Personal to edit and correct it or add notes. All changes will be seen only by you. Learn more »
launch autoscroll
font size
0
reset
how to read this tab
guitar tuner
edit
Autoscroll
slow
fast
+/-
esc
set tempo
stop
[Guitar 1]: Rhythm
[Guitar 2]: Lead

[Guitar 1]
eb|--------------------------------------|
Bb|--------------------------------------|
Gb|-------999----------------------------|
Db|-22222-999----------------------------| x12
Ab|-22222-777----------------------------|
Eb|-00000--------------------------------|

[Guitar 2] (after 4 measures of [Guitar 1])
eb|-12--12--12--12--10-10-10-10-8-8-8-8--7-7-7-7--|
Bb|---12--12--12--12--8--8--8--8-6-6-6-6--5-5-5-5-|
Gb|-----------------------------------------------|
Db|-----------------------------------------------| 
Ab|-----------------------------------------------|
Eb|-----------------------------------------------|

eb|--------------------------------------|
Bb|--------------------------------------|
Gb|-5555-22------------------------------|
Db|--------44444-------------------------| 
Ab|--------------------------------------|
Eb|--------------------------------------|
It's the truth not the lies that hurt the ones we love

[Both guitars]
eb|--------------------------------------|
Bb|--------------------------------------|
Gb|-------999----------------------------|
Db|-22222-999----------------------------| x4
Ab|-22222-777----------------------------|
Eb|-00000--------------------------------|

[Guitar 2]
eb|--------------------------------------|
Bb|--------------------------------------|
Gb|-5555-22------------------------------|
Db|----------44444-----------------------| 
Ab|--------55----------------------------|
Eb|--------------------------------------|
So I tried my best

[Guitar 1]
eb|--------------------------------------|
Bb|--------------------------------------|
Gb|-------999----------------------------|
Db|-22222-999----------------------------| x4      
Ab|-22222-777----------------------------|
Eb|-00000--------------------------------|
To be good enough

[Guitar 2]
eb|-12--12--12--12--10-10-10-10-8-8-8-8--7-7-7-7--|
Bb|---12--12--12--12--8--8--8--8-6-6-6-6--5-5-5-5-|
Gb|-----------------------------------------------|
Db|-----------------------------------------------| 
Ab|-----------------------------------------------|
Eb|-----------------------------------------------|
To be good enough

[Both guitars]
eb|--------------------------------------|
Bb|--------------------------------------|
Gb|--------------------------------------|
Db|-77777777-999-101010101010-999--------| 
Ab|-77777777-999-101010101010-999--------|
Eb|-55555555-777-8-8-8-8-8-8--777--------|
Can somebody tell me if this is really happening

[Guitar 1]
eb|--------------------------------------|
Bb|--------------------------------------|
Gb|--------------------------------------|
Db|-55555555-44444444-22222222-----------| 
Ab|-55555555-44444444-22222222-----------|
Eb|-33333333-22222222-00000000-----------|
With love blind eyes

[Guitar 2]
eb|--------------------------------------|
Bb|--------------------------------------|
Gb|----------------------------579-------|
Db|-----8b~------8b~---------------------| 
Ab|--------------------------------------|
Eb|--------------------------------------|
With love blind eyes

[Both guitars]
eb|--------------------------------------|
Bb|--------------------------------------|
Gb|--------------------------------------|
Db|-77777777-4444-555555-44444444--------| 
Ab|-77777777-4444-555555-44444444--------|
Eb|-55555555-2222-333333-22222222--------|
I wish someone would tell me

[Guitar 1]
eb|--------------------------------------|
Bb|--------------------------------------|
Gb|-------999----------------------------|
Db|-22222-999----------------------------| x4
Ab|-22222-777----------------------------|
Eb|-00000--------------------------------|

[Guitar 2]
eb|-12--12--12--12--10-10-10-10-8-8-8-8--7-7-7-7--|
Bb|---12--12--12--12--8--8--8--8-6-6-6-6--5-5-5-5-|
Gb|-----------------------------------------------|
Db|-----------------------------------------------| 
Ab|-----------------------------------------------|
Eb|-----------------------------------------------|

[Both guitars]
eb|--------------------------------------|
Bb|--------------------------------------|
Gb|------------------------------------57|
Db|-555555555555-9999-7777-444444444444--| 
Ab|--------------------------------------|
Eb|--------------------------------------|
Your love takes

eb|--------------------------------------|
Bb|--------------------------------------|
Gb|----9999------------------------------|
Db|-22-9999------------------------------|  x4
Ab|-22-7777------------------------------|
Eb|-00-----------------------------------|
The shape of suffering and silently I wish

eb|--------------------------------------|
Bb|--------------------------------------|
Gb|------------4444-6666-22222222-79-----|
Db|-55555555555--------------------------| 
Ab|--------------------------------------|
Eb|--------------------------------------|
That I was

eb|--------------------------------------|
Bb|--------------------------------------|
Gb|--------------------------------------|
Db|-2------------------------------------| 
Ab|-2----Let it ring---------------------|
Eb|-0------------------------------------|
Anybody but me

eb|-------------------------------------------------------------------|
Bb|-------------------------------------------------------------------|
Gb|-------------------------------------------------------------------|
Db|--7777777777777-9999-10101010101010101010101010101010-999999999999-| 
Ab|--7777777777777-9999-10101010101010101010101010101010-999999999999-|
Eb|--5555555555555-7777-8-8-8-8-8-8-8-8-8-8-8-8-8-8-8-8--777777777777-| 
Well trained eyes find

[Guitar 1]
eb|--------------------------------------|
Bb|--------------------------------------|
Gb|--------------------------------------|
Db|--55555555-44444444-22222222----------| 
Ab|--55555555-44444444-22222222----------|
Eb|--33333333-22222222-00000000----------|
Things are not alright

[Guitar 2]
eb|--------------------------------------|
Bb|--------------------------------------|
Gb|---------------------77-999999999-----|
Db|------8b~------8b~--------------------| 
Ab|--------------------------------------|
Eb|--------------------------------------|
Things are not alright

[Both guitars]
eb|--------------------------------------|
Bb|--------------------------------------|
Gb|--------------------------------------|
Db|-77777777-4444-555555-44444444--------| 
Ab|-77777777-4444-555555-44444444--------|
Eb|-55555555-2222-333333-22222222--------|
I wish someone would tell me

[Guitar 1]
eb|--------------------------------------|
Bb|--------------------------------------|
Gb|-------999----------------------------|
Db|-22222-999----------------------------| x8  
Ab|-22222-777----------------------------|
Eb|-00000--------------------------------|

[Guitar 2]
eb|--------------------------------------|
Bb|--------------------------------------|
Gb|--7777777-999-5555555-44444444-2-0----|
Db|--------------------------------------| 
Ab|--------------------------------------|
Eb|--------------------------------------|

eb|--------------------------------------|
Bb|-------87------87------87-------------|
Gb|-444444--222222--000000--44444444-----|
Db|--------------------------------------| 
Ab|--------------------------------------|
Eb|--------------------------------------|

[Guitar 2]
eb|---------------------------------------------|
Bb|--8888---------------------------------------|
Gb|-00000-222--11111111-----99999-777-9999-1111-|
Db|----------000-0-0-0------99999-777-9999-1111-| 
Ab|--------------------55-7777777-555-7777-9-9--|
Eb|---------------------------------------------|
There's times when I pretend you never made it home

eb|------------------------7---7-----------------------|
Bb|--8888-------------------8---8--------1113333-------|
Gb|-00000-222--11111111------------44444---------5754--|
Db|----------000-0-0-0--55---44--2222222-------------2-| 
Ab|--------------------------------------------------2-|
Eb|--------------------------------------------------0-|
When I take my time I can make things seem fine

[Guitar 1]
eb|--------------------------------------|
Bb|--------------------------------------|
Gb|-------999----------------------------|
Db|-22222-999----------------------------| x4
Ab|-22222-777----------------------------|
Eb|-00000--------------------------------|

[Guitar 2]
eb|-12--12--12--12--10-10-10-10-8-8-8-8--7-7-7-7--|
Bb|---12--12--12--12--8--8--8--8-6-6-6-6--5-5-5-5-|
Gb|-----------------------------------------------|
Db|-----------------------------------------------| 
Ab|-----------------------------------------------|
Eb|-----------------------------------------------|

[Both guitars]
eb|------------------------------------------------------|
Bb|------------------------------------------------------|
Gb|------------------------------------------------------|
Db|-101010101010101010101010-12121212-9999-7777-5555-4-2-| 
Ab|-101010101010101010101010-12121212-9999-7777-5555-4-2-|
Eb|-8-8-8-8-8-8-8-8-8-8-8-8--10101010-7777-5555-3333-2-0-|
We thought we had it all

[Guitar 1]
eb|--------------------------------------|
Bb|--------------------------------------|
Gb|-------999----------------------------|
Db|-22222-999----------------------------| x4
Ab|-22222-777----------------------------|
Eb|-00000--------------------------------|
The only thing we own

[Guitar 2]
eb|-12--12--12--12--10-10-10-10-8-8-8-8--7-7-7-7--|
Bb|---12--12--12--12--8--8--8--8-6-6-6-6--5-5-5-5-|
Gb|-----------------------------------------------|
Db|-----------------------------------------------| 
Ab|-----------------------------------------------|
Eb|-----------------------------------------------|
The only thing we own

[Both guitars]
eb|------------------------------------------------------|
Bb|------------------------------------------------------|
Gb|------------------------------------------------------|
Db|-101010101010101010101010-12121212-9999-7777-5555-4-2-| 
Ab|-101010101010101010101010-12121212-9999-7777-5555-4-2-|
Eb|-8-8-8-8-8-8-8-8-8-8-8-8--10101010-7777-5555-3333-2-0-|
Never know how far we've really come

[Guitar 1]
eb|--------------------------------------|
Bb|--------------------------------------|
Gb|-------999----------------------------|
Db|-22222-999----------------------------| x4
Ab|-22222-777----------------------------|
Eb|-00000--------------------------------|
You're not a slave to your past

[Guitar 2]
eb|--------------------------------------|
Bb|--------------------------------------|
Gb|--------------------------------------|
Db|-22222222-44444444-55555555-77777777--| 
Ab|--------------------------------------|
Eb|--------------------------------------|
You're not a slave to your past



************************************

| b  Bend 

************************************

            
            
Suggest correction
Creating personal tab
Creating personal tab
You can edit any tab online and save it as your Personal.

You can edit, replace or remove any tab part or add personal notes – all changes will be seen only by you.

Personal tabs can be accessed anytime from any device, even offline.
Learn more »
Give kudos to tab author, rate the tab!
1 2 3 4 5
comments
print report bad tab
2 comments total.
0 reply
owen.jeffreys 10 May 01, 2017 07:25 AM

The lyrics to the ending is, "your gunna stray to the path, your gunna stray"

0 reply
nanasloulou1 10 May 23, 2017 04:57 PM

Nope, pretty sure you're incorrect my friend

guest
You may want to rate the tab now too:
select rating
Wanna post a correction for this tab? Suggest correction