Oops, an error
Loading. Please wait.

Dear Percocet I Dont Think We Should See Each Other Anymore Tab

106 views 48 this week
no commentswrite comment
1 2 3 4 5
1 last vote to show rating
add to favorites
launch autoscroll
font size
0
reset
how to read this tab
guitar tuner
Autoscroll
slow
fast
+/-
esc
set tempo
stop
Help us to improve Ultimate-Guitar.com Take our survey!
×
Author
Tuning
D# G# C# F# A# D#
[Intro]
eb|-------------------------------------------------|
Bb|-------------------------------------------------|
Gb|-------------------------------------------------|
Db|---------------------------5---------------------|
Ab|-7-7-7-7--7-7-7-7--7-7-7-7---7-6-----------------|
Eb|-------------------------------------------------|

eb|--------------------------------------------------|
Bb|--------------------------------------------------|
Gb|--------------------------------------------------|
Db|---------------------------5----------------------|
Ab|-7-7-7-7--7-7-7-7--7-7-7-7---7-6------------------|
Eb|--------------------------------------------------|
Intro solo
eb|----------5---------------------------------10----12p10-----|
Bb|-5--5-5-8---8-7------8p7------------8-10-12----12-------12--|
Gb|----------------8--8-----8---9--9-9-------------------------|
Db|------------------------------------------------------------|
Ab|------------------------------------------------------------|
Eb|------------------------------------------------------------|

eb|----------5--------------------10-12------------------------|
Bb|-5--5-5-8---8-7------8p7----12-------10-X-8---7-8p7---------|
Gb|----------------8--8-----8------------------9-------9-------|
Db|------------------------------------------------------------|
Ab|------------------------------------------------------------|
Eb|------------------------------------------------------------|

[Verse]
eb|-------------------------------------------------|
Bb|-------------------------------------------------|
Gb|-------------------------------------------------|
Db|----------------------5--------------------------|
Ab|-7-7-7-7-7--7-7--7--7---7-6----------------------|
Eb|-------------------------------------------------|

eb|-------------------------------------------------|
Bb|-------------------------------------------------|
Gb|-------------------------------------------------|
Db|----------------------5--------------------------|
Ab|-7-7-7-7-7--7-7--7--7---7-6----------------------|
Eb|-------------------------------------------------|

eb|------------------------------------------------------|
Bb|------------------------------------------------------|
Gb|------------------------------------------------------|
Db|-7-7-7-7-7--7-7--7------------------------------------|
Ab|-------------------7-7-7--7-7-7--7-7-7--7-7-7--7-7-7--|
Eb|------------------------------------------------------|

Then do a really messy slide before the chorus

[Chorus]
eb|---------------------------------------------------------|
Bb|---------------------------------------------------------|
Gb|-------------------------7--7--7-7-----------------------|
Db|-2--2--2-2--5--5--5-5-5--7--7--7-7--7--7-7-7-7-7---------|
Ab|-2--2--2-2--5--5--5-5-5--5--5--5-5--7--7-7-7-7-7---------|
Eb|-0--0--0-0--3--3--3-3-3-------------5--5-5-5-5-5--3------|

Slight bend on the last note

eb|---------------------------------------------------------|
Bb|---------------------------------------------------------|
Gb|---------------------------------------------------------|
Db|-2--2--2-2--5--5--5-5-5--4--4--4-4--5--5-5-5-5-5---------|
Ab|-2--2--2-2--5--5--5-5-5--4--4--4-4--5--5-5-5-5-5---------|
Eb|-0--0--0-0--3--3--3-3-3--2--2--2-2--3--3-3-3-3-3---------|

[Solo/bridge]
eb|----------5---------------------------------10----12p10-----|
Bb|-5--5-5-8---8-7------8p7------------8-10-12----12-------12--|
Gb|----------------8--8-----8---9--9-9-------------------------|
Db|------------------------------------------------------------|
Ab|------------------------------------------------------------|
Eb|------------------------------------------------------------|

eb|----------5------------------------------------------------------|
Bb|-5--5-5-8---8-7------8p7----10p0-8p0-7p0-4p0-8p0-10p0-12p0-8p0---|
Gb|----------------8--8-----8---------------------------------------|
Db|-----------------------------------------------------------------|
Ab|---------------------------------------------------------------3-|
Eb|---------------------------------------------------------------0-|

eb|-------------------------------------------------|
Bb|-------------------------------------------------|
Gb|-------------------------------------------------|
Db|-------------------------------------------------|
Ab|-------7~----------------------------------------|
Eb|-1/12\-------------------------------------------|

eb|-7-5---------------------------------------------|
Bb|-----8-5~/8~-10-8---8-10-8---8-10-8---8-8/12-----|
Gb|------------------9--------9--------9------------|
Db|-------------------------------------------------|
Ab|-------------------------------------------------|
Eb|-------------------------------------------------|

[Chorus]
eb|---------------------------------------------------------|
Bb|---------------------------------------------------------|
Gb|-------------------------7--7--7-7-----------------------|
Db|-2--2--2-2--5--5--5-5-5--7--7--7-7--7--7-7-7-7-7---------|
Ab|-2--2--2-2--5--5--5-5-5--5--5--5-5--7--7-7-7-7-7---------|
Eb|-0--0--0-0--3--3--3-3-3-------------5--5-5-5-5-5--3------|

Slight bend on the last note

eb|---------------------------------------------------------|
Bb|---------------------------------------------------------|
Gb|---------------------------------------------------------|
Db|-2--2--2-2--5--5--5-5-5--5--5--5--5-7-5-4----------------|
Ab|-2--2--2-2--5--5--5-5-5--5--5--5--5-7-5-4----------------|
Eb|-0--0--0-0--3--3--3-3-3--3--3--3--3-5-3-2----------------|

[Bridge]
eb|---------------------------------------------------------|
Bb|---------------------------------------------------------|
Gb|---------------------------------------------------------|
Db|-2--2--2--2--2--8--7--2--2--2--2--2----------------------|
Ab|-2--2--2--2--2--8--7--2--2--2--2--2----------------------|
Eb|-0--0--0--0--0--6--5--0--0--0--0--0----------------------|

*Scream*

eb|---------------------------------------------------------|
Bb|---------------------------------------------------------|
Gb|---------------------------------------------------------|
Db|-2--2--2--2--2--8--7--2--2----2--------------------------|
Ab|-2--2--2--2--2--8--7--2--2----2--------------------------|
Eb|-0--0--0--0--0--6--5--0--0--3-0--------------------------|

Rad riff
eb|-------------------------------------------------|
Bb|-------------------------------------------------|
Gb|-------------------------------------------------|
Db|-------------------------------------------------|
Ab|--------------------2p0--------------------------|
Eb|-15\-0-3p0-3-2-1-0------3-5p3-2-0----------------|

eb|-------------------------------------------------|
Bb|-------------------------------------------------|
Gb|-------------------------------------------------|
Db|-------------------------------------------------|
Ab|----------------2p0------------------------------|
Eb|-0-3p0-3-2-1-0------3-2--0-----------------------|

eb|-------------------------------------------------|
Bb|-------------------------------------------------|
Gb|-------------------------------------------------|
Db|-------------------------------------------------|
Ab|----------------2p0------------------------------|
Eb|-0-3p0-3-2-1-0------3-5p3-2-0-3p0-3-2-1-0--------|

[Solo/Outro] (This is the rhythm because I can't figure out the solo)
eb|---------------------------------------------------------|
Bb|---------------------------------------------------------|
Gb|---------------------------------------------------------|
Db|-2--5-2--5-2--5-2--7-------------------------------------|
Ab|-2--5-2--5-2--5-2--7-------------------------------------|
Eb|-0--3-0--3-0--3-0--5-------------------------------------|

eb|---------------------------------------------------------|
Bb|---------------------------------------------------------|
Gb|---------------------------------------------------------|
Db|-5-2--5-2--5-2--7-7-7------------------------------------|
Ab|-5-2--5-2--5-2--7-7-7------------------------------------|
Eb|-3-0--3-0--3-0--5-5-5------------------------------------|

eb|---------------------------------------------------------|
Bb|---------------------------------------------------------|
Gb|---------------------------------------------------------|
Db|-5-2--5-2--5-2--7---------7--7-5-------------------------|
Ab|-5-2--5-2--5-2--7--5------7--7-5-------------------------|
Eb|-3-0--3-0--5-0--5----7-5--5--5-3-------------------------|

eb|---------------------------------------------------------|
Bb|---------------------------------------------------------|
Gb|---------------------------------------------------------|
Db|-5-2--5-2--5-2--7-7--------------------------------------|
Ab|-5-2--5-2--5-2--7-7--------------------------------------|
Eb|-3-0--3-0--3-0--5-5--------------------------------------|

eb|---------------------------------------------------------|
Bb|---------------------------------------------------------|
Gb|---------------------------------------------------------|
Db|-5-2--5-2--5-2--7-7--------------------------------------|
Ab|-5-2--5-2--5-2--7-7--------------------------------------|
Eb|-3-0--3-0--3-0--5-5--------------------------------------|

eb|---------------------------------------------------------|
Bb|---------------------------------------------------------|
Gb|---------------------------------------------------------|
Db|-7-5--5-2--5-2--7-7--------------------------------------|
Ab|-7-5--5-2--5-2--7-7--5-----------------------------------|
Eb|-5-3--3-0--3-0--5-5----7-5-------------------------------|



************************************

| b  Bend
| p  Pull-off
| ~  Vibrato
| /  Slide up
| \  Slide down

************************************
Suggest correction
Give kudos to tab author, rate the tab!
1 2 3 4 5
comments
print report bad tab
guest
You may want to rate the tab now too:
select rating
Wanna post a correction for this tab? Suggest correction