Oops, an error
Loading. Please wait.

Im A Mess Tab

331 views 57 this week
1 commentread comment
1 2 3 4 5
1 last vote to show rating
add to favorites
launch autoscroll
font size
0
reset
how to read this tab
guitar tuner
Autoscroll
slow
fast
+/-
esc
set tempo
stop
Help us to improve Ultimate-Guitar.com Take our survey!
×
Author
Difficulty
Tuning
intermediate
D# G# C# F# A# D#
[Intro]
D#|-0-----------------------------------------------|
A#|-0-----------------------------------------------|
F#|-1-----------------------------------------------|
C#|-2-----------------------------------------------|
G#|-2-----------------------------------------------|
D#|-0-----------------------------------------------|

[Pre-verse]
   PM------------------------------------------------------------|
D#|---------------------------------------------------------------|
A#|---------------------------------------------------------------|
F#|---------------------------------------------------------------|
C#|-9-------------------------------------------------------------|
G#|-9-------------------------------------------------------------|
D#|-7-7-7-7-7--7-7-7-7--7-7-7-7--7-7-7-7--7-7-7-7--7-7-7-7--------|

D#|-------------------------------------------------|
A#|-------------------------------------------------|
F#|-------------------------------------------------|
C#|-7-7--7-7----------------------------------------|
G#|-7-7--7-7----------------------------------------|
D#|-5-5--5-5----------------------------------------|

   PM------------------------------------------------------|
D#|---------------------------------------------------------------|
A#|---------------------------------------------------------------|
F#|---------------------------------------------------------------|
C#|-9-------------------------------------------------------7-----|
G#|-9-------------------------------------------------------7-----|
D#|-7-7-7-7-7--7-7-7-7--7-7-7-7--7-7-7-7--7-7-7-7--7-7-7-7--5-----|

[Verse]
D#|--------------------------------------------------------------|
A#|--------------------------------------------------------------|
F#|--------------------------------------------------------------|
C#|-9--9-9-9-9--9-9-9-9--9-9-9-9--9-9-9-9--9-9-9-9--9-9-9-9------|
G#|-9--9-9-9-9--9-9-9-9--9-9-9-9--9-9-9-9--9-9-9-9--9-9-9-9------|
D#|-7--7-7-7-7--7-7-7-7--7-7-7-7--7-7-7-7--7-7-7-7--7-7-7-7------|

D#|-------------------------------------------------|
A#|-------------------------------------------------|
F#|-------------------------------------------------|
C#|-5-5--5-7-2--------------------------------------|
G#|-5-5--5-7-2--------------------------------------|
D#|-3-3--3-5-0--------------------------------------|

D#|--------------------------------------------------------------|
A#|--------------------------------------------------------------|
F#|--------------------------------------------------------------|
C#|-9--9-9-9-9--9-9-9-9--9-9-9-9--9-9-9-9--9-9-9-9--9-9-9-9------|
G#|-9--9-9-9-9--9-9-9-9--9-9-9-9--9-9-9-9--9-9-9-9--9-9-9-9------|
D#|-7--7-7-7-7--7-7-7-7--7-7-7-7--7-7-7-7--7-7-7-7--7-7-7-7------|

D#|-------------------------------------------------|
A#|-------------------------------------------------|
F#|----------7--------------------------------------|
C#|-5-5--5-7-7--------------------------------------|
G#|-5-5--5-7-5--------------------------------------|
D#|-3-3--3-5----------------------------------------|

D#|--------------------------------------------------------------|
A#|--------------------------------------------------------------|
F#|--------------------------------------------------------------|
C#|-9--9-9-9-9--9-9-9-9--9-9-9-9--9-9-9-9--9-9-9-9--9-9-9-9------|
G#|-9--9-9-9-9--9-9-9-9--9-9-9-9--9-9-9-9--9-9-9-9--9-9-9-9------|
D#|-7--7-7-7-7--7-7-7-7--7-7-7-7--7-7-7-7--7-7-7-7--7-7-7-7------|

D#|-------------------------------------------------|
A#|-------------------------------------------------|
F#|-------------------------------------------------|
C#|-5-5--5-7-2--------------------------------------|
G#|-5-5--5-7-2--------------------------------------|
D#|-3-3--3-5-0--------------------------------------|

[Pre-Chorus]
D#|--------------------------------------------------------------|
A#|--------------------------------------------------------------|
F#|--------------------------------------------------------------|
C#|-9--9-9-9-9--9-9-9-9--9-9-9-9--9-9-9-9--9-9-9-9--9-9-9-9------|
G#|-9--9-9-9-9--9-9-9-9--9-9-9-9--9-9-9-9--9-9-9-9--9-9-9-9------|
D#|-7--7-7-7-7--7-7-7-7--7-7-7-7--7-7-7-7--7-7-7-7--7-7-7-7------|

D#|----------0--------------------------------------|
A#|----------0--------------------------------------|
F#|----------1--------------------------------------|
C#|-5-5--5-4-2--------------------------------------|
G#|-5-5--5-4-2--------------------------------------|
D#|-3-3--3-2-0--------------------------------------|

[Chorus]
D#|-------------------------------------------------|
A#|-------------------------------------------------|
F#|-14-14--13-11------------------------------------|
C#|-X--X---X--X-------------------------------------|
G#|-12-12--11-9-------------------------------------|
D#|-------------------------------------------------|

D#|--------------------------------------------------------------|
A#|--------------------------------------------------------------|
F#|--------------------------------------------------------------|
C#|-9-9-9-9--9-9-9-9--9-9-9-9--9-9-9-9---------------------------|
G#|-9-9-9-9--9-9-9-9--9-9-9-9--9-9-9-9---------------------------|
D#|-7-7-7-7--7-7-7-7--7-7-7-7--7-7-7-7---------------------------|

D#|--------------------------------------------------------------|
A#|--------------------------------------------------------------|
F#|--------------------------------------------------------------|
C#|-7-7-7-7--7-7-7-7--7-7-7-7--7-7-7-7---------------------------|
G#|-7-7-7-7--7-7-7-7--7-7-7-7--7-7-7-7---------------------------|
D#|-5-5-5-5--5-5-5-5--5-5-5-5--5-5-5-5---------------------------|

D#|--------------------------------------------------------------|
A#|--------------------------------------------------------------|
F#|--------------------------------------------------------------|
C#|-9-9-9-9--9-9-9-9--9-9-9-9--9-9-9-9---------------------------|
G#|-9-9-9-9--9-9-9-9--9-9-9-9--9-9-9-9---------------------------|
D#|-7-7-7-7--7-7-7-7--7-7-7-7--7-7-7-7---------------------------|

D#|--------------------------------------------------------------|
A#|--------------------------------------------------------------|
F#|--------------------------------------------------------------|
C#|-7-7-7-7--7-7-7-7--7-7-7-7--7-7-7-7--6------------------------|
G#|-7-7-7-7--7-7-7-7--7-7-7-7--7-7-7-7--6------------------------|
D#|-5-5-5-5--5-5-5-5--5-5-5-5--5-5-5-5--4------------------------|

D#|-----------------------------------------------------------------|
A#|-----------------------------------------------------------------|
F#|-8-8-8-8--8-8--8-11--11-9--4--6-6-6-6--6-6-6-6--6-6-6-6--6-6-6-6-|
C#|-X-X-X-X--X-X--X-X---X--X--X--X-X-X-X--X-X-X-X--X-X-X-X--X-X-X-X-|
G#|-6-6-6-6--6-6--6-9---9--7--2--4-4-4-4--4-4-4-4--4-4-4-4--4-4-4-4-|
D#|-----------------------------------------------------------------|

D#|-------------------------------------------------------------------------------------------------------|
A#|-------------------------------------------------------------------------------------------------------|
F#|-13-13-13-13--13-13-13-13--13-13-13-13--13-13-13-13--13-13-13-13--13-13-13-13--13-13-13-13--11-9-------|
C#|-X--X--X--X---X--X--X--X---X--X--X--X---X--X--X--X---X--X--X--X---X--X--X--X---X--X--X--X---X--X-------|
G#|-11-11-11-11--11-11-11-11--11-11-11-11--11-11-11-11--11-11-11-11--11-11-11-11--11-11-11-11--9--7-------|
D#|-------------------------------------------------------------------------------------------------------|

[Post chorus/verse]
   PM------------------------------------------------------------|
D#|---------------------------------------------------------------|
A#|---------------------------------------------------------------|
F#|---------------------------------------------------------------|
C#|-9-------------------------------------------------------------|
G#|-9-------------------------------------------------------------|
D#|-7-7-7-7-7--7-7-7-7--7-7-7-7--7-7-7-7--7-7-7-7--7-7-7-7--------|

D#|----------0--------------------------------------|
A#|----------0--------------------------------------|
F#|----------1--------------------------------------|
C#|-5-5--5-4-2--------------------------------------|
G#|-5-5--5-4-2--------------------------------------|
D#|-3-3--3-2-0--------------------------------------|

   PM------------------------------------------------------------|
D#|---------------------------------------------------------------|
A#|---------------------------------------------------------------|
F#|---------------------------------------------------------------|
C#|-9-------------------------------------------------------------|
G#|-9-------------------------------------------------------------|
D#|-7-7-7-7-7--7-7-7-7--7-7-7-7--7-7-7-7--7-7-7-7--7-7-7-7--------|

D#|-------------------------------------------------|
A#|-------------------------------------------------|
F#|----------7--------------------------------------|
C#|-5-5--5-7-7--------------------------------------|
G#|-5-5--5-7-5--------------------------------------|
D#|-3-3--3-5----------------------------------------|

D#|--------------------------------------------------------------|
A#|--------------------------------------------------------------|
F#|--------------------------------------------------------------|
C#|-9--9-9-9-9--9-9-9-9--9-9-9-9--9-9-9-9--9-9-9-9--9-9-9-9------|
G#|-9--9-9-9-9--9-9-9-9--9-9-9-9--9-9-9-9--9-9-9-9--9-9-9-9------|
D#|-7--7-7-7-7--7-7-7-7--7-7-7-7--7-7-7-7--7-7-7-7--7-7-7-7------|

D#|-------------------------------------------------|
A#|-------------------------------------------------|
F#|-------------------------------------------------|
C#|-5-5--5-7-2--------------------------------------|
G#|-5-5--5-7-2--------------------------------------|
D#|-3-3--3-5-0--------------------------------------|

[Pre-Chorus]
D#|--------------------------------------------------------------|
A#|--------------------------------------------------------------|
F#|--------------------------------------------------------------|
C#|-9--9-9-9-9--9-9-9-9--9-9-9-9--9-9-9-9--9-9-9-9--9-9-9-9------|
G#|-9--9-9-9-9--9-9-9-9--9-9-9-9--9-9-9-9--9-9-9-9--9-9-9-9------|
D#|-7--7-7-7-7--7-7-7-7--7-7-7-7--7-7-7-7--7-7-7-7--7-7-7-7------|

D#|----------0--------------------------------------|
A#|----------0--------------------------------------|
F#|----------1--------------------------------------|
C#|-5-5--5-4-2--------------------------------------|
G#|-5-5--5-4-2--------------------------------------|
D#|-3-3--3-2-0--------------------------------------|

[Chorus]
D#|-------------------------------------------------|
A#|-------------------------------------------------|
F#|-14-14--13-11------------------------------------|
C#|-X--X---X--X-------------------------------------|
G#|-12-12--11-9-------------------------------------|
D#|-------------------------------------------------|

D#|--------------------------------------------------------------|
A#|--------------------------------------------------------------|
F#|--------------------------------------------------------------|
C#|-9-9-9-9--9-9-9-9--9-9-9-9--9-9-9-9---------------------------|
G#|-9-9-9-9--9-9-9-9--9-9-9-9--9-9-9-9---------------------------|
D#|-7-7-7-7--7-7-7-7--7-7-7-7--7-7-7-7---------------------------|

D#|--------------------------------------------------------------|
A#|--------------------------------------------------------------|
F#|--------------------------------------------------------------|
C#|-7-7-7-7--7-7-7-7--7-7-7-7--7-7-7-7---------------------------|
G#|-7-7-7-7--7-7-7-7--7-7-7-7--7-7-7-7---------------------------|
D#|-5-5-5-5--5-5-5-5--5-5-5-5--5-5-5-5---------------------------|

D#|--------------------------------------------------------------|
A#|--------------------------------------------------------------|
F#|--------------------------------------------------------------|
C#|-9-9-9-9--9-9-9-9--9-9-9-9--9-9-9-9---------------------------|
G#|-9-9-9-9--9-9-9-9--9-9-9-9--9-9-9-9---------------------------|
D#|-7-7-7-7--7-7-7-7--7-7-7-7--7-7-7-7---------------------------|

D#|--------------------------------------------------------------|
A#|--------------------------------------------------------------|
F#|--------------------------------------------------------------|
C#|-7-7-7-7--7-7-7-7--7-7-7-7--7-7-7-7--6------------------------|
G#|-7-7-7-7--7-7-7-7--7-7-7-7--7-7-7-7--6------------------------|
D#|-5-5-5-5--5-5-5-5--5-5-5-5--5-5-5-5--4------------------------|

D#|-----------------------------------------------------------------|
A#|-----------------------------------------------------------------|
F#|-8-8-8-8--8-8--8-11--11-9--4--6-6-6-6--6-6-6-6--6-6-6-6--6-6-6-6-|
C#|-X-X-X-X--X-X--X-X---X--X--X--X-X-X-X--X-X-X-X--X-X-X-X--X-X-X-X-|
G#|-6-6-6-6--6-6--6-9---9--7--2--4-4-4-4--4-4-4-4--4-4-4-4--4-4-4-4-|
D#|-----------------------------------------------------------------|

D#|----------------------------------------------------------------------------------------------------------|
A#|----------------------------------------------------------------------------------------------------------|
F#|-13-13-13-13--13-13-13-13--13-13-13-13--13-13-13-13--13-13-13-13--13-13-13-13--13-13-13-13--11-9----------|
C#|-X--X--X--X---X--X--X--X---X--X--X--X---X--X--X--X---X--X--X--X---X--X--X--X---X--X--X--X---X--X----------|
G#|-11-11-11-11--11-11-11-11--11-11-11-11--11-11-11-11--11-11-11-11--11-11-11-11--11-11-11-11--9--7----------|
D#|----------------------------------------------------------------------------------------------------------|

[Bridge]
D#|----------------------------------------------------------------------|
A#|----------------------------------------------------------------------|
F#|----------------------------------------------------------------------|
C#|----------------------------------------------------------------------|
G#|----------------------------------------------------------------------|
D#|-7-7-9-7--7-9-7--7-9-7--7-9-7--7-9-7--7-9-9--10-12-10--9-10-9---------|

D#|----------------------------------------------------------------------|
A#|----------------------------------------------------------------------|
F#|----------------------------------------------------------------------|
C#|----------------------------------------------------------------------|
G#|-6-6-7-6--6-7-6--6-7-6--6-7-6--6-7-6--6-7--9~-7~----------------------|
D#|----------------------------------------------------------------------|

(Bass only)

[Bridge part 2]
D#|----------------------------------------------------------------------|
A#|----------------------------------------------------------------------|
F#|----------------------------------------------------------------------|
C#|-9--9\----------------------------------------------------------------|
G#|-9--9\----------------------------------------------------------------|
D#|-7--7\----------------------------------------------------------------| 7X

[Verse/pre-chorus]
   PM------------------------------------------------------------|
D#|---------------------------------------------------------------|
A#|---------------------------------------------------------------|
F#|---------------------------------------------------------------|
C#|-9-------------------------------------------------------------|
G#|-9-------------------------------------------------------------|
D#|-7-7-7-7-7--7-7-7-7--7-7-7-7--7-7-7-7--7-7-7-7--7-7-7-7--------|

D#|-------------------------------------------------|
A#|-------------------------------------------------|
F#|-------------------------------------------------|
C#|-7-7--7-7----------------------------------------|
G#|-7-7--7-7----------------------------------------|
D#|-5-5--5-5----------------------------------------|

  PM-------------------------------------------------------------|
D#|---------------------------------------------------------------|
A#|---------------------------------------------------------------|
F#|---------------------------------------------------------------|
C#|-9-------------------------------------------------------------|
G#|-9-------------------------------------------------------------|
D#|-7-7-7-7-7--7-7-7-7--7-7-7-7--7-7-7-7--7-7-7-7--7-7-7-7--------|

D#|-----0-------------------------------------------|
A#|-----0-------------------------------------------|
F#|-----1-------------------------------------------|
C#|-7---2----2--------------------------------------|
G#|-7---2----2--------------------------------------|
D#|-5---0----0--------------------------------------|

[Last chorus/outro]
D#|--------------------------------------------------------------|
A#|--------------------------------------------------------------|
F#|--------------------------------------------------------------|
C#|-9-9-9-9--9-9-9-9--9-9-9-9--9-9-9-9---------------------------|
G#|-9-9-9-9--9-9-9-9--9-9-9-9--9-9-9-9---------------------------|
D#|-7-7-7-7--7-7-7-7--7-7-7-7--7-7-7-7---------------------------|

D#|--------------------------------------------------------------|
A#|--------------------------------------------------------------|
F#|--------------------------------------------------------------|
C#|-7-7-7-7--7-7-7-7--7-7-7-7--7-7-7-7---------------------------|
G#|-7-7-7-7--7-7-7-7--7-7-7-7--7-7-7-7---------------------------|
D#|-5-5-5-5--5-5-5-5--5-5-5-5--5-5-5-5---------------------------|

D#|--------------------------------------------------------------|
A#|--------------------------------------------------------------|
F#|--------------------------------------------------------------|
C#|-9-9-9-9--9-9-9-9--9-9-9-9--9-9-9-9---------------------------|
G#|-9-9-9-9--9-9-9-9--9-9-9-9--9-9-9-9---------------------------|
D#|-7-7-7-7--7-7-7-7--7-7-7-7--7-7-7-7---------------------------|

D#|--------------------------------------------------------------|
A#|--------------------------------------------------------------|
F#|--------------------------------------------------------------|
C#|-7-7-7-7--7-7-7-7--7-7-7-7--7-7-7-7--6------------------------|
G#|-7-7-7-7--7-7-7-7--7-7-7-7--7-7-7-7--6------------------------|
D#|-5-5-5-5--5-5-5-5--5-5-5-5--5-5-5-5--4------------------------|

D#|-----------------------------------------------------------------|
A#|-----------------------------------------------------------------|
F#|-8-8-8-8--8-8--8-11--11-9--4--6-6-6-6--6-6-6-6--6-6-6-6--6-6-6-6-|
C#|-X-X-X-X--X-X--X-X---X--X--X--X-X-X-X--X-X-X-X--X-X-X-X--X-X-X-X-|
G#|-6-6-6-6--6-6--6-9---9--7--2--4-4-4-4--4-4-4-4--4-4-4-4--4-4-4-4-|
D#|-----------------------------------------------------------------|

D#|----------------------------------------------------------------------------------------------------------|
A#|----------------------------------------------------------------------------------------------------------|
F#|-13-13-13-13--13-13-13-13--13-13-13-13--13-13-13-13--13-13-13-13--13-13-13-13--13-13-13-13--11-9----------|
C#|-X--X--X--X---X--X--X--X---X--X--X--X---X--X--X--X---X--X--X--X---X--X--X--X---X--X--X--X---X--X----------|
G#|-11-11-11-11--11-11-11-11--11-11-11-11--11-11-11-11--11-11-11-11--11-11-11-11--11-11-11-11--9--7----------|
D#|----------------------------------------------------------------------------------------------------------|

D#|--------------------------------------------------------------|
A#|--------------------------------------------------------------|
F#|--------------------------------------------------------------|
C#|-9-9-9-9--9-9-9-9--9-9-9-9--9-9-9-9---------------------------|
G#|-9-9-9-9--9-9-9-9--9-9-9-9--9-9-9-9---------------------------|
D#|-7-7-7-7--7-7-7-7--7-7-7-7--7-7-7-7---------------------------|

D#|--------------------------------------------------------------|
A#|--------------------------------------------------------------|
F#|--------------------------------------------------------------|
C#|-7-7-7-7--7-7-7-7--7-7-7-7--7-7-7-7---------------------------|
G#|-7-7-7-7--7-7-7-7--7-7-7-7--7-7-7-7---------------------------|
D#|-5-5-5-5--5-5-5-5--5-5-5-5--5-5-5-5---------------------------|

D#|--------------------------------------------------------------|
A#|--------------------------------------------------------------|
F#|--------------------------------------------------------------|
C#|-9-9-9-9--9-9-9-9--9-9-9-9--9-9-9-9---------------------------|
G#|-9-9-9-9--9-9-9-9--9-9-9-9--9-9-9-9---------------------------|
D#|-7-7-7-7--7-7-7-7--7-7-7-7--7-7-7-7---------------------------|

D#|--------------------------------------------------------------|
A#|--------------------------------------------------------------|
F#|--------------------------------------------------------------|
C#|-7-7-7-7--7-7-7-7--7-7-7-7--7-7-7-7--6------------------------|
G#|-7-7-7-7--7-7-7-7--7-7-7-7--7-7-7-7--6------------------------|
D#|-5-5-5-5--5-5-5-5--5-5-5-5--5-5-5-5--4------------------------|

D#|---------------------------------------------------------------------------------|
A#|---------------------------------------------------------------------------------|
F#|-8-8-8-8--8-8--8-11--11-16--16--14-14-14-14-14-14-14-14-14-14-14-14-14-14-14-14--|
C#|-X-X-X-X--X-X--X-X---X--X---X---X--X--X--X--X--X--X--X--X--X--X--X--X--X--X--X---|
G#|-6-6-6-6--6-6--6-9---9--14--14--12-12-12-12-12-12-12-12-12-12-12-12-12-12-12-12--|
D#|---------------------------------------------------------------------------------|

D#|------------------------------------------------------------------------|
A#|------------------------------------------------------------------------|
F#|-13-13-13-13-13-13-13-13-13-13-13-14--14-14-14-14-14-14-14--11----------|
C#|-X--X--X--X--X--X--X--X--X--X--X--X---X--X--X--X--X--X--X---X-----------|
G#|-11-11-11-11-11-11-11-11-11-11-11-12--12-12-12-12-12-12-12--9-----------|
D#|------------------------------------------------------------------------|

************************************

| ~  Vibrato
| \  Slide down
| PM Palm Mute

************************************
Suggest correction
Give kudos to tab author, rate the tab!
1 2 3 4 5
comments
print report bad tab
1 comment total.
0 reply
hsmith18181 10 2 days ago

This is perfect!!! Thanks so much!!!

guest
You may want to rate the tab now too:
select rating
Wanna post a correction for this tab? Suggest correction