Oops, an error
Loading. Please wait.

Oceans tab

version 1
version 1

Whole song

  • This is in the correct tuning according to Frank I... Show more
  • Turn every string down a half tone, no capo.
1,114 views 15 this week
1 commentread comment
1 2 3 4 5
1 last vote to show rating
add to favorites
×
Save as Personal and add changes to this tab that will be seen only by you. Learn more ›
×
You can save this tab as Personal to edit and correct it or add notes. All changes will be seen only by you. Learn more »
launch autoscroll
font size
0
reset
how to read this tab
guitar tuner
edit
Autoscroll
slow
fast
+/-
esc
set tempo
stop
Author
About this tab version
This is in the correct tuning according to Frank Iero himself (he's tweeted the tuning). Was this info helpful? Yes No
Tuning: C# G# C# F# A# C#

[Intro]

C#|------------------|
A#|------------------|
F#|------------------|
C#|-3p0---0-3-5---7--|
G#|5-----------------|
C#|------------------|

[Verse]

C#|---------------|---------------|---------------|---------------|
A#|---------------|---------------|---------------|---------------|
F#|---------------|---------------|---------------|---------------|
C#|---------------|---------------|---------------|---------------|
G#|---------------|---------------|---------------|---------------|
C#|3-3-3-3-3-3-3-3|3-3-3-3-3-3-2-2|0-0-0-0-0-0-0-0|0-0-0-0-0-0-0-0|
PM . . . . . . . . . . . . . . . . . . . . . . . . . . . . . . . .

C#|---------------|---------------|-----------------|---------------|
A#|---------------|---------------|-----------------|---------------|
F#|---------------|---------------|-----------------|---------------|
C#|---------------|---------------|10-10---9-9-9---7|7-7---5-5-5-5-5|
G#|---------------|5-5-5-5-5-5-5-5|10-10---9-9-9---7|7-7---5-5-5-5-5|
C#|5-5-5-5-5-5-7-7|---------------|-----------------|---------------|
PM . . . . . . . . . . . . . . . .

C#|---------------|---------------|---------------|-----------------|
A#|---------------|---------------|---------------|-----------------|
F#|---------------|---------------|---------------|-----------------|
C#|---------------|---------------|---------------|3p0---0-3-0------|
G#|---------------|---------------|---------------|5-------------5--|
C#|3-3-3-3-3-3-3-3|3-3-3-3-3-3-2-2|3-3-3-3-3-3-3-3|-----------------|
PM . . . . . . . . . . . . . . . . . . . . . . . .  

C#|---------------|---------------|---------------|---------------|
A#|---------------|---------------|---------------|---------------|
F#|---------------|---------------|---------------|---------------|
C#|---------------|---------------|---------------|---------------|
G#|---------------|---------------|---------------|---------------|
C#|3-3-3-3-3-3-3-3|3-3-3-3-3-3-2-2|0-0-0-0-0-0-0-0|0-0-0-0-0-0-0-0|
PM . . . . . . . . . . . . . . . . . . . . . . . . . . . . . . . .

C#|---------------|---------------|-----------------|---------------|
A#|---------------|---------------|-----------------|---------------|
F#|---------------|---------------|-----------------|---------------|
C#|---------------|---------------|10-10---9-9-9---7|7-7---5-5-5-5-5|
G#|---------------|5-5-5-5-5-5-5-5|10-10---9-9-9---7|7-7---5-5-5-5-5|
C#|5-5-5-5-5-5-7-7|---------------|-----------------|---------------|
PM . . . . . . . . . . . . . . . .

C#|---------------|---------------|---------------|------------------|
A#|---------------|---------------|---------------|------------------|
F#|---------------|---------------|---------------|------------------|
C#|---------------|---------------|---------------|-3p0---0-3-5---7--|
G#|---------------|---------------|---------------|5-----------------|
C#|3-3-3-3-3-3-3-3|3-3-3-3-3-3-2-2|3-3-3-3-3-3-3-3|------------------|
PM . . . . . . . . . . . . . . . . . . . . . . . .  

[Chorus 1]

C#|---------------|---------------|---------------|---------------|
A#|---------------|---------------|---------------|---------------|
F#|---------------|---------------|---------------|---------------|
C#|---------------|---------------|---------------|---------------|
G#|3---3-3-3---3-3|3---3-3-3---3-3|5---5-5-5---5-5|5---5-5-5---5-5|
C#|3---3-3-3---3-3|3---3-3-3---3-3|0---0-0-0---0-0|0---0-0-0---0-0|

C#|---------------|---------------|---------------|---------------|
A#|---------------|---------------|---------------|---------------|
F#|---------------|---------------|----2~------2~2|----2~----2-2-2|
C#|3-3-3-3-3-3-3-3|3-3-3-3-3-3-3-3|---------------|---------------|
G#|3-3-3-3-3-3-3-3|3-3-3-3-3-3-3-3|0-------0------|0-0-----0------|
C#|---------------|---------------|0-------0------|0-0-----0------|

C#|---------------|-----------------|----------------|-----------------------|---------------|---------------|
A#|---------------|-----------------|----------------|-----------------------|---------------|---------------|
F#|---------------|-----------------|----------------|-----------------------|---------------|---------------|
C#|5-5---7-7---9--|9-9-7---9---10-10|--15------------|10-10-10-10-10-10-10-10|----7~------7~7|----7~----7-7-7|
G#|5-5---7-7---9--|9-9-7---9---10-10|--15------------|10-10-10-10-10-10-10-10|0-------0------|0-0-----0------|
C#|---------------|-----------------|----------------|-----------------------|0-------0------|0-0-----0------|

C#|---------------|---------------|
A#|---------------|---------------|
F#|---------------|---------------|
C#|3-3-3-3-3-3-3-3|5-5-5-5-5-5-5-5|
G#|3-3-3-3-3-3-3-3|5-5-5-5-5-5-5-5|
C#|---------------|---------------|

[Verse 2]

At 1:21 - 1:42 no guitar. After that:

C#|------------------|---------------|---------------|---------------|---------------|
A#|------------------|---------------|---------------|---------------|---------------|
F#|------------------|---------------|---------------|---------------|---------------|
C#|-3p0---0-3-5---3--|---------------|---------------|---------------|---------------|
G#|5-----------------|---------------|---------------|---------------|---------------|
C#|------------------|3-3-3-3-3-3-3-3|3-3-3-3-3-3-2-2|0-0-0-0-0-0-0-0|0-0-0-0-0-0-0-0|
PM                    . . . . . . . . . . . . . . . . . . . . . . . . . . . . . . . .

C#|---------------|---------------|---------------------|----------------------|
A#|---------------|---------------|---------------------|----------------------|
F#|---------------|---------------|---------------------|----------------------|
C#|---------------|---------------|10-10---12-12-12---14|14-14---12-12-12-12-12|
G#|---------------|5-5-5-5-5-5-5-5|10-10---12-12-12---14|14-14---12-12-12-12-12|
C#|5-5-5-5-5-5-7-7|---------------|---------------------|----------------------|
PM . . . . . . . . . . . . . . . . 

C#|---------------|---------------|---------------|------------------|
A#|---------------|---------------|---------------|------------------|
F#|---------------|---------------|---------------|------------------|
C#|---------------|---------------|---------------|-3p0---0-3-5---7--|
G#|---------------|---------------|---------------|5-----------------|
C#|3-3-3-3-3-3-3-3|3-3-3-3-3-3-2-2|3-3-3-3-3-3-3-3|------------------|
PM . . . . . . . . . . . . . . . . . . . . . . . .

[Chorus 2]

C#|---------------|---------------|---------------|---------------|
A#|---------------|---------------|---------------|---------------|
F#|---------------|---------------|---------------|---------------|
C#|---------------|---------------|---------------|---------------|
G#|3---3-3-3---3-3|3---3-3-3---3-3|5---5-5-5---5-5|5---5-5-5---5-5|
C#|3---3-3-3---3-3|3---3-3-3---3-3|0---0-0-0---0-0|0---0-0-0---0-0|

C#|---------------|---------------|---------------|---------------|
A#|---------------|---------------|---------------|---------------|
F#|---------------|---------------|----2~------2~2|----2~----2-2-2|
C#|3-3-3-3-3-3-3-3|3-3-3-3-3-3-3-3|---------------|---------------|
G#|3-3-3-3-3-3-3-3|3-3-3-3-3-3-3-3|0-------0------|0-0-----0------|
C#|---------------|---------------|0-------0------|0-0-----0------|

C#|---------------|-----------------|----------------|------------------|---------------|---------------|
A#|---------------|-----------------|----------------|------------------|---------------|---------------|
F#|---------------|-----------------|----------------|------------------|---------------|---------------|
C#|5-5---7-7---9--|9-9-7---9---10-10|--15------------|10-10---9-9---10--|----7~------7~7|----7~----7-7-7|
G#|5-5---7-7---9--|9-9-7---9---10-10|--15------------|10-10---9-9---10--|0-------0------|0-0-----0------|
C#|---------------|-----------------|----------------|------------------|0-------0------|0-0-----0------|

C#|---------------|---------------|
A#|---------------|---------------|
F#|---------------|---------------|
C#|3-3-3-3-3-3-3-3|5-5-5-5-5-5-5-5|
G#|3-3-3-3-3-3-3-3|5-5-5-5-5-5-5-5|
C#|---------------|---------------|

[Bridge]

C#|---------------|---------------|---------------|---------------|
A#|---------------|---------------|---------------|---------------|
F#|---------------|---------------|---------------|---------------|
C#|---------------|---------------|---------------|---------------|
G#|---------------|---------------|---------------|---------------|
C#|1-1-1-1-1-1-1-1|1-1-1-1-1-1-1-1|1-1-1-1-1-1-1-1|1-1-1-1-1-1-1-1|
PM . . . . . . . . . . . . . . . . . . . . . . . . . . . . . . . .

C#|---------------|---------------|-------------------|-------------------|
A#|---------------|---------------|-------------------|-------------------|
F#|---------------|---------------|-------------------|-------------------|
C#|---------------|---------------|-------------------|-------------------|
G#|5-5-5-5-5-5-5-5|7-7-7-7-7-7-7-7|9-9-9-9-10-10-10-10|9-10-12---12~--14--|
C#|---------------|---------------|-------------------|---------------14--|

C#|---------------|---------------|---------------|---------------|
A#|---------------|---------------|---------------|---------------|
F#|---------------|---------------|---------------|---------------|
C#|---------------|---------------|---------------|---------------|
G#|---------------|---------------|---------------|---------------|
C#|3-3-3-3-3-3-3-3|3-3-3-3-3-3-3-3|3-3-3-3-3-3-3-3|333\-----------|
PM   . . . . . . . . . . . . . . . . . . . . . . . ... 

[Chorus 3]

C#|---------------|---------------|---------------|---------------|
A#|---------------|---------------|---------------|---------------|
F#|---------------|---------------|---------------|---------------|
C#|---------------|---------------|---------------|---------------|
G#|3---3-3-3---3-3|3---3-3-3---3-3|5---5-5-5---5-5|5---5-5-5---5-5|
C#|3---3-3-3---3-3|3---3-3-3---3-3|0---0-0-0---0-0|0---0-0-0---0-0|

C#|---------------|---------------|---------------|---------------|
A#|---------------|---------------|---------------|---------------|
F#|---------------|---------------|----2~------2~2|----2~----2-2-2|
C#|3-3-3-3-3-3-3-3|3-3-3-3-3-3-3-3|---------------|---------------|
G#|3-3-3-3-3-3-3-3|3-3-3-3-3-3-3-3|0-------0------|0-0-----0------|
C#|---------------|---------------|0-------0------|0-0-----0------|

C#|---------------|-----------------|----------------|------------------|---------------------|
A#|---------------|-----------------|----------------|------------------|---------------------|
F#|---------------|-----------------|----------------|------------------|---------------------|
C#|5-5---7-7---9--|9-9-7---9---10-10|--15------------|10-10---9-9---10--|---------------------|
G#|5-5---7-7---9--|9-9-7---9---10-10|--15------------|10-10---9-9---10--|12---13~--12---13~13~|
C#|---------------|-----------------|----------------|------------------|---------------------|

C#|----------------------|---------------|---------------|
A#|----------------------|---------------|---------------|
F#|----------------------|---------------|---------------|
C#|12-12---10-10-10-10-10|3-3-3-3-3-3-3-3|2-2-2-2-0-0-0-0|
G#|12-12---10-10-10-10-10|3-3-3-3-3-3-3-3|2-2-2-2-0-0-0-0|
C#|----------------------|---------------|---------------|

[Outro]

C#|---------------|---------------|---------------|---------------|
A#|---------------|---------------|---------------|---------------|
F#|---------------|---------------|---------------|---------------|
C#|7-7-7-7-7-7-7-7|7-7-7-7-7-7-7-7|7-7-7-7-7-7-7-7|7-7-7-7-7-7-7-7|
G#|7-7-7-7-7-7-7-7|7-7-7-7-7-7-7-7|7-7-7-7-7-7-7-7|7-7-7-7-7-7-7-7|
C#|---------------|---------------|---------------|---------------|

C#|---------------|---------------|-----------------------|-----------------------|
A#|---------------|---------------|-----------------------|-----------------------|
F#|9-9-9-9-9-9-9-9|9-9-9-9-9-9-9-9|-----------------------|-----------------------|
C#|---------------|---------------|12-12-12-12-12-12-12-12|12-12-12-12-12-12-12-12|
G#|9-9-9-9-9-9-9-9|9-9-9-9-9-9-9-9|12-12-12-12-12-12-12-12|12-12-12-12-12-12-12-12|
C#|---------------|---------------|-----------------------|-----------------------|

C#|---------------|---------------|---------------|---------------|
A#|---------------|---------------|---------------|---------------|
F#|---------------|--------------0|---------------|---------------|
C#|---------------|---------------|---------------|---------------|
G#|7-7-7-5-7-7-7-5|7-7-7-5-7-7----|---------------|---------------|
C#|---------------|---------------|5-5-5-3-5-5-5-3|5-5-5-3-5-7----|

C#|---------------|---------------|-----------------------|---------------|
A#|---------------|---------------|-----------------------|---------------|
F#|---------------|---------------|-----------------------|---------------|
C#|---------------|---------------|-----------------------|7-7-7-7-7-7-7-7|
G#|---------------|---------------|12-12-12-12-12-12-12-12|7-7-7-7-7-7-7-7|
C#|8-8-8-7-8-8-8-7|8-8-8-7-8-8----|10-10-10-10-10-10-10-10|---------------|

C#|-------------------|-------------------|---------------|
A#|-------------------|-------------------|---------------|
F#|-------------------|-------------------|5--------------|
C#|-------------------|----------12-------|5--------------|
G#|9-9-9-9-10-10-10-10|9-10-12---12---12--|5--------------|
C#|-------------------|---------------12--|5--------------|


************************************

| ~     Vibrato
| \     Slide down
| PM .  Palm mute

************************************
Suggest correction
Creating personal tab
Creating personal tab
You can edit any tab online and save it as your Personal.

You can edit, replace or remove any tab part or add personal notes – all changes will be seen only by you.

Personal tabs can be accessed anytime from any device, even offline.
Learn more »
Give kudos to tab author, rate the tab!
1 2 3 4 5
comments
print report bad tab
1 comment total.
0 reply
Naumau 58 Jan 01, 2017 10:44 AM

I made a couple of corrections to the verses and the bridge. Sorry for the confusion if you were learning this before the changes.

guest
You may want to rate the tab now too:
select rating
Wanna post a correction for this tab? Suggest correction