Oops, an error
Loading. Please wait.

Oceans tab

version 3
version 3

Whole song

  • This is in the correct tuning according to Frank I... Show more
  • Turn every string down a half tone, no capo.
103 views 3 this week
no commentswrite comment
1 2 3 4 5
3 more votes to show rating
add to favorites
×
Save as Personal and add changes to this tab that will be seen only by you. Learn more ›
×
You can save this tab as Personal to edit and correct it or add notes. All changes will be seen only by you. Learn more »
launch autoscroll
font size
0
reset
how to read this tab
guitar tuner
edit
Autoscroll
slow
fast
+/-
esc
set tempo
stop
Intro
C#|-----------------------------------------------|
G#|-----------------------------------------------|
E||-----------------------------------------------|
B||-0h5p0----5-7-9--------------------------------|
F#|-------7---------------------------------------|
B||-----------------------------------------------|

Verse
PM----------------------------------------------------------------------------------------------
C#|----------------------------------------------------------------------------------------------|
G#|----------------------------------------------------------------------------------------------|
E||----------------------------------------------------------------------------------------------|
B||-5-5-5-5-5-5-5-5-5-5-5-5-4-4-2-2-2-2-2-2-2-2-2-2-2-2-2-2-2-2-7-7-7-7-7-7-9-9-7-7-7-7-7-7-7-7--|
F#|-5-5-5-5-5-5-5-5-5-5-5-5-4-4-2-2-2-2-2-2-2-2-2-2-2-2-2-2-2-2-7-7-7-7-7-7-9-9-5-5-5-5-5-5-5-5--|
B||-5-5-5-5-5-5-5-5-5-5-5-5-4-4-2-2-2-2-2-2-2-2-2-2-2-2-2-2-2-2-7-7-7-7-7-7-9-9-0-0-0-0-0-0-0-0--|

C#|----------------------------------------------------------|
G#|----------------------------------------------------------|
E|--12-12--12\11-11--11\9--9--9\7--7-------------------------|
B|--X--X---X--X--X---X--X--X--X-X--X-------------------------|
F#|-10-10--10\9--9---9-\7--7--7\5--5-------------------------|
B||-0--0---0--0--0---0--0--0--0-0--0-------------------------|

 PM---------------------------------------------
C#|------------------------------------------------------|
G#|------------------------------------------------------|
E||------------------------------------------------------|
B||-5-5-5-5-5-5-5-5-5-5-5-5-4-4-5-5-5-5-5-5-5-5----------|
F#|-5-5-5-5-5-5-5-5-5-5-5-5-4-4-5-5-5-5-5-5-5-5----------|
B||-5-5-5-5-5-5-5-5-5-5-5-5-4-4-5-5-5-5-5-5-5-5----------|

C#|-----------------------------------------------|
Bb|-----------------------------------------------|
F#|-----------------------------------------------|
C#|-0h5p0----5------------------------------------|
G#|-------7----7-5--------------------------------|
C#|-----------------------------------------------|

PM----------------------------------------------------------------------------------------------
C#|----------------------------------------------------------------------------------------------|
G#|----------------------------------------------------------------------------------------------|
E||----------------------------------------------------------------------------------------------|
B||-5-5-5-5-5-5-5-5-5-5-5-5-4-4-2-2-2-2-2-2-2-2-2-2-2-2-2-2-2-2-7-7-7-7-7-7-9-9-7-7-7-7-7-7-7-7--|
F#|-5-5-5-5-5-5-5-5-5-5-5-5-4-4-2-2-2-2-2-2-2-2-2-2-2-2-2-2-2-2-7-7-7-7-7-7-9-9-5-5-5-5-5-5-5-5--|
B||-5-5-5-5-5-5-5-5-5-5-5-5-4-4-2-2-2-2-2-2-2-2-2-2-2-2-2-2-2-2-7-7-7-7-7-7-9-9-0-0-0-0-0-0-0-0--|

C#|----------------------------------------------------------|
G#|----------------------------------------------------------|
E|--12-12--12\11-11--11\9--9--9\7--7-------------------------|
B|--X--X---X--X--X---X--X--X--X-X--X-------------------------|
F#|-10-10--10\9--9---9-\7--7--7\5--5-------------------------|
B||-0--0---0--0--0---0--0--0--0-0--0-------------------------|

 PM---------------------------------------------
C#|------------------------------------------------------|
G#|------------------------------------------------------|
E||------------------------------------------------------|
B||-5-5-5-5-5-5-5-5-5-5-5-5-4-4-5-5-5-5-5-5-5-5----------|
F#|-5-5-5-5-5-5-5-5-5-5-5-5-4-4-5-5-5-5-5-5-5-5----------|
B||-5-5-5-5-5-5-5-5-5-5-5-5-4-4-5-5-5-5-5-5-5-5----------|

Transition to Chorus
C#|-----------------------------------------------|
G#|-----------------------------------------------|
E||-----------------------------------------------|
B||-0h5p0----5-7-9--------------------------------|
F#|-------7---------------------------------------|
B||-----------------------------------------------|

Chorus (The rhythm pattern here is a little weird but you basically want play to the rhythm of the vocals)
C#|-----------------------------------------------|
G#|-----------------------------------------------|
E||-----------------------------------------------|
B||-7--9-9--7--9-9--4--5-5--7--5-5----------------|
F#|-5--5-5--5--5-5--2--2-2--2--2-2----------------|
B||-5--5-5--5--5-5--2--2-2--2--2-2----------------|

C#|------------------------------------------------------|
G#|------------------------------------------------------|
E||------------------------------------------------------|
B||-10-10-10-10-10-10-10-10-10-10-10-10-10-10-10-10------|
F#|-10-10-10-10-10-10-10-10-10-10-10-10-10-10-10-10------|
B||-10-10-10-10-10-10-10-10-10-10-10-10-10-10-10-10------|

C#|-----------------------------------------------|
G#|-----------------------------------------------|
E||-----------------------------------------------|
B||-7-7-9--7--9-9--7-7-9--7--9-9------------------|
F#|-7-7-7--7--7-7--7-7-7--7--7-7------------------|
B||-7-7-7--7--7-7--7-7-7--7--7-7------------------|

C#|-----------------------------------------------
G#|-----------------------------------------------
E||-----------------------------------------------
B||-7--9-9--7--7--5-5-----------------------------
F#|-5--5-5--5--5--5-5-----------------------------
B||-5--5-5--5--5--5-5-----------------------------

C#|------------------------------------------------------------------|
G#|------------------------------------------------------------------|
E||------------------------------------------------------------------|
B||-10-10-10-10-10-10-10-10-10-10-10-7-7-7-7-7-7-7-7-7-7-7-7-7-7-7-7-|
F#|-10-10-10-10-10-10-10-10-10-10-10-7-7-7-7-7-7-7-7-7-7-7-7-7-7-7-7-|
B||-10-10-10-10-10-10-10-10-10-10-10-7-7-7-7-7-7-7-7-7-7-7-7-7-7-7-7-|

C#|-----------------------------------------------------|
G#|-----------------------------------------------------|
E||-----------------------------------------------------|
B||-10-10-10-10-10-10-10-10-10-12-12-12-12-12-12-12-12--|
F#|-10-10-10-10-10-10-10-10-10-12-12-12-12-12-12-12-12--|
B||-10-10-10-10-10-10-10-10-10-12-12-12-12-12-12-12-12--|


Verse
Just bass for the first part then play this
C#|-----------------------------------------------|
G#|-----------------------------------------------|
E||-----------------------------------------------|
B||-0h5p0----5-7-5--------------------------------|
F#|-------7---------------------------------------|
B||-----------------------------------------------|

PM----------------------------------------------------------------------------------------------
C#|----------------------------------------------------------------------------------------------|
G#|----------------------------------------------------------------------------------------------|
E||----------------------------------------------------------------------------------------------|
B||-5-5-5-5-5-5-5-5-5-5-5-5-4-4-2-2-2-2-2-2-2-2-2-2-2-2-2-2-2-2-7-7-7-7-7-7-9-9-7-7-7-7-7-7-7-7--|
F#|-5-5-5-5-5-5-5-5-5-5-5-5-4-4-2-2-2-2-2-2-2-2-2-2-2-2-2-2-2-2-7-7-7-7-7-7-9-9-5-5-5-5-5-5-5-5--|
B||-5-5-5-5-5-5-5-5-5-5-5-5-4-4-2-2-2-2-2-2-2-2-2-2-2-2-2-2-2-2-7-7-7-7-7-7-9-9-0-0-0-0-0-0-0-0--|

C#|----------------------------------------------------------|
G#|----------------------------------------------------------|
E||-12-12--12-14-14--14-16-16--16--14-14---------------------|
B||-X--X---X--X--X---X--X--X---X---X--X----------------------|
F#|-10-10--10-12-12--12-14-14--14--12-12---------------------|
B||-0--0---0--0--0---0--0--0---0---0--0----------------------|

 PM---------------------------------------------
C#|------------------------------------------------------|
G#|------------------------------------------------------|
E||------------------------------------------------------|
B||-5-5-5-5-5-5-5-5-5-5-5-5-4-4-5-5-5-5-5-5-5-5----------|
F#|-5-5-5-5-5-5-5-5-5-5-5-5-4-4-5-5-5-5-5-5-5-5----------|
B||-5-5-5-5-5-5-5-5-5-5-5-5-4-4-5-5-5-5-5-5-5-5----------|

Transition to Chorus
C#|-----------------------------------------------|
G#|-----------------------------------------------|
E||-----------------------------------------------|
B||-0h5p0----5-7-9--------------------------------|
F#|-------7---------------------------------------|
B||-----------------------------------------------|

Chorus 
C#|-----------------------------------------------|
G#|-----------------------------------------------|
E||-----------------------------------------------|
B||-7--9-9--7--9-9--4--5-5--7--5-5----------------|
F#|-5--5-5--5--5-5--2--2-2--2--2-2----------------|
B||-5--5-5--5--5-5--2--2-2--2--2-2----------------|

C#|------------------------------------------------------|
G#|------------------------------------------------------|
E||------------------------------------------------------|
B||-10-10-10-10-10-10-10-10-10-10-10-10-10-10-10-10------|
F#|-10-10-10-10-10-10-10-10-10-10-10-10-10-10-10-10------|
B||-10-10-10-10-10-10-10-10-10-10-10-10-10-10-10-10------|

C#|-----------------------------------------------|
G#|-----------------------------------------------|
E||-----------------------------------------------|
B||-7-7-9--7--9-9--7-7-9--7--9-9------------------|
F#|-7-7-7--7--7-7--7-7-7--7--7-7------------------|
B||-7-7-7--7--7-7--7-7-7--7--7-7------------------|

C#|-----------------------------------------------
G#|-----------------------------------------------
E||-----------------------------------------------
B||-7--9-9--7--7--5-5-----------------------------
F#|-5--5-5--5--5--5-5-----------------------------
B||-5--5-5--5--5--5-5-----------------------------

C#|------------------------------------------------------------------|
G#|------------------------------------------------------------------|
E||------------------------------------------------------------------|
B||-10-10-10-10-10-10-10-10-10-10-10-7-7-7-7-7-7-7-7-7-7-7-7-7-7-7-7-|
F#|-10-10-10-10-10-10-10-10-10-10-10-7-7-7-7-7-7-7-7-7-7-7-7-7-7-7-7-|
B||-10-10-10-10-10-10-10-10-10-10-10-7-7-7-7-7-7-7-7-7-7-7-7-7-7-7-7-|

C#|-----------------------------------------------------|
G#|-----------------------------------------------------|
E||-----------------------------------------------------|
B||-10-10-10-10-10-10-10-10-10-12-12-12-12-12-12-12-12--|
F#|-10-10-10-10-10-10-10-10-10-12-12-12-12-12-12-12-12--|
B||-10-10-10-10-10-10-10-10-10-12-12-12-12-12-12-12-12--|

Bridge
C#|------------|
G#|------------|
E||------------|
B||-3----------|
F#|-3----------|
B||-3----------|

C#|--------------------------------------------------------------------------|
G#|--------------------------------------------------------------------------|
E||-7-7-7-7-7-7-7-7-9-9-9-9-9-9-9-9-11-11-11-11-12-12-12-12--11-12-14-14-----|
B||-X-X-X-X-X-X-X-X-X-X-X-X-X-X-X-X-X--X--X--X--X--X--X--X---X--X--X--X------|
F#|-5-5-5-5-5-5-5-5-7-7-7-7-7-7-7-7-9--9--9--9--10-10-10-10--9--10-12-12-----|
B||-0-0-0-0-0-0-0-0-0-0-0-0-0-0-0-0-0--0--0--0--0--0--0--0---0--0--0--0------|

PM------------------------------------------------
C#|-----------------------------------------------------|
G#|-----------------------------------------------------|
E||-----------------------------------------------------|
B||-5-5-5-5-5-5-5-5-5-5-5-5-5-5-5-5-5-5-5-5-5-5-5-5-----|
F#|-5-5-5-5-5-5-5-5-5-5-5-5-5-5-5-5-5-5-5-5-5-5-5-5-----|
B||-5-5-5-5-5-5-5-5-5-5-5-5-5-5-5-5-5-5-5-5-5-5-5-5-----|

Chorus 
C#|-----------------------------------------------|
G#|-----------------------------------------------|
E||-----------------------------------------------|
B||-7--9-9--7--9-9--4--5-5--7--5-5----------------|
F#|-5--5-5--5--5-5--2--2-2--2--2-2----------------|
B||-5--5-5--5--5-5--2--2-2--2--2-2----------------|

C#|------------------------------------------------------|
G#|------------------------------------------------------|
E||------------------------------------------------------|
B||-10-10-10-10-10-10-10-10-10-10-10-10-10-10-10-10------|
F#|-10-10-10-10-10-10-10-10-10-10-10-10-10-10-10-10------|
B||-10-10-10-10-10-10-10-10-10-10-10-10-10-10-10-10------|

C#|-----------------------------------------------|
G#|-----------------------------------------------|
E||-----------------------------------------------|
B||-7-7-9--7--9-9--7-7-9--7--9-9------------------|
F#|-7-7-7--7--7-7--7-7-7--7--7-7------------------|
B||-7-7-7--7--7-7--7-7-7--7--7-7------------------|

C#|-----------------------------------------------
G#|-----------------------------------------------
E||-----------------------------------------------
B||-7--9-9--7--7--5-5-----------------------------
F#|-5--5-5--5--5--5-5-----------------------------
B||-5--5-5--5--5--5-5-----------------------------

C#|----------------------------------------------------------------|
G#|----------------------------------------------------------------|
E||----------------------------------------------------------------|
B||-10-10-10-10-10-10-10-10-10-10-10-10-10-10-10-10-7-7-9--7--9-9--|
F#|-10-10-10-10-10-10-10-10-10-10-10-10-10-10-10-10-7-7-7--7--7-7--|
B||-10-10-10-10-10-10-10-10-10-10-10-10-10-10-10-10-7-7-7--7--7-7--|

C#|----------------------------------------------------------------|
G#|----------------------------------------------------------------|
E||----------------------------------------------------------------|
B||-7-7-7-7-7-7-7-7-7-7-10-10-10-10-10-10-10-10-10-9-9-9-9-7-7-7-7-|
F#|-7-7-7-7-7-7-7-7-7-7-10-10-10-10-10-10-10-10-10-9-9-9-9-7-7-7-7-|
B||-7-7-7-7-7-7-7-7-7-7-10-10-10-10-10-10-10-10-10-9-9-9-9-7-7-7-7-|

Outro
C#|---------------------------------------------------------------------------------|
G#|---------------------------------------------------------------------------------|
E||-9-9-9-9-9-9-9-9-9-9-9-9-9-9-9-9-9-9-9-9-9-9-9-9-9-9-9-9-9-9-9-9-9-9-9-9-9-9-9-9-|
B||-X-X-X-X-X-X-X-X-X-X-X-X-X-X-X-X-X-X-X-X-X-X-X-X-X-X-X-X-X-X-X-X-X-X-X-X-X-X-X-X-|
F#|-7-7-7-7-7-7-7-7-7-7-7-7-7-7-7-7-7-7-7-7-7-7-7-7-7-7-7-7-7-7-7-7-7-7-7-7-7-7-7-7-|
B||---------------------------------------------------------------------------------|

C#|--------------------------------------------------------------------------------------------------------|
G#|--------------------------------------------------------------------------------------------------------|
E||--11-11-11-11-11-11-11-11-11-11-11-11-11-11-11-11-14-14-14-14-14-14-14-14-14-14-14-14-14-14-14-14-------|
B||- X--X--X--X--X--X--X--X--X--X--X--X--X--X--X--X--X--X--X--X--X--X--X--X--X--X--X--X--X--X--X--X--------|
F#|--9--9--9--9--9--9--9--9--9--9--9--9--9--9--9--9--12-12-12-12-12-12-12-12-12-12-12-12-12-12-12-12-------|
B||--------------------------------------------------------------------------------------------------------|

C#|--------------------------------------------------------------------------------|
G#|-------------------------------------------------------------------------------|
E||-------------------------------------------------------------------------------|
B||-14-14-14-12-14-14-14-12-14-14-14-12-14-14-14-12-7-7-7-5-7-7-7-5-7-7-7-5--7-9--|
F#|-14-14-14-12-14-14-14-12-14-14-14-12-14-14-14-12-7-7-7-5-7-7-7-5-7-7-7-5--7-9--|
B||-14-14-14-12-14-14-14-12-14-14-14-12-14-14-14-12-7-7-7-5-7-7-7-5-7-7-7-5--7-9--|

C#|------------------------------------------------|
G#|------------------------------------------------|
E||------------------------------------------------|
B||-10-10-10-9-10-10-10-9-10-10-10-9-10-10-10-9----|
F#|-10-10-10-9-10-10-10-9-10-10-10-9-10-10-10-9----|
B||-10-10-10-9-10-10-10-9-10-10-10-9-10-10-10-9----|

C#|---------------------------------------------------------------------------|
G#|---------------------------------------------------------------------------|
E||-7-7-7-7-7-7-7-7-9-9-9-9-9-9-9-9-11-11-11-11-12-12-12-12-11-12-14-14-14----|
B||-X-X-X-X-X-X-X-X-X-X-X-X-X-X-X-X-X--X--X--X--X--X--X--X--X--X--X--X--X--5--|
F#|-5-5-5-5-5-5-5-5-7-7-7-7-7-7-7-7-9--9--9--9--10-10-10-10-9--10-12-12-12-5--|
B||------------------------------------------------------------------------5--|



************************************

| h   Hammer-on
| p   Pull-off
| PM  Palm mute
| \   Slide down
| x   Dead note
| #   

************************************

            
            
Suggest correction
Creating personal tab
Creating personal tab
You can edit any tab online and save it as your Personal.

You can edit, replace or remove any tab part or add personal notes – all changes will be seen only by you.

Personal tabs can be accessed anytime from any device, even offline.
Learn more »
Give kudos to tab author, rate the tab!
1 2 3 4 5
comments
print report bad tab
guest
You may want to rate the tab now too:
select rating
Wanna post a correction for this tab? Suggest correction