Oops, an error
Loading. Please wait.
52 views 52 this week
no commentswrite comment
1 2 3 4 5
3 more votes to show rating
add to favorites
launch autoscroll
font size
0
reset
how to read this tab
guitar tuner
Autoscroll
slow
fast
+/-
esc
set tempo
stop
Help us to improve Ultimate-Guitar.com Take our survey!
×
Author
[Intro]
eb-----------------------------------------|
Bb-----------------------------------------|
Gb-14-13-11--------------------------------|
Db----------14-13-11-9-7-------------------|
Ab-----------------------9-7---------------|
Eb-----------------------------------------|

[Verse]
eb-----------------------------------------------------------------------------------------------------------|
Bb-----------------------------------------------------------------------------------------------------------|
Gb-13--13--13-13-13-13--11--11--11\9\8--8--8--8-8-8--13--13--13--13-13-13--11--11--11--9--9--9--9/11--11--11-|
Db-X---X---X--X--X--X---X---X---X--X-X--X--X--X-X-X--X---X---X---X--X--X---X---X---X---X--X--X--X-X---X---X--|
Ab-11--11--11-11-11-11--9---9---9\-7\6--6--6--6-6-6--11--11--11--11-11-11--9---9---9---7--7--7--7/9---9---9--|
Eb-----------------------------------------------------------------------------------------------------------|

eb----------------------|
Bb----------------------|
Gb---9\8\6\4------------|
Db---X-X-X-X------------|
Ab---7\6\4\2------------|
Eb----------------------|

eb-----------------------------------------------------------------------------------------------|
Bb-----------------------------------------------------------------------------------------------|
Gb-13--13--13-13-9--9--9-9-9--11--13/14\13\11-11--11--11-11--13--13--13-14-16--16--16-18-18------|
Db-X---X---X--X--X--X--X-X-X--X---X--X--X--X--X---X---X--X---X---X---X--X--X---X---X--X--X-------|
Ab-11--11--11-11-7--7--7-7-7--9---11/12\11\9--9---9---9--9---11--11--11-12-14--14--14-16-16------|
Eb-----------------------------------------------------------------------------------------------|

eb-------------------------------------|
Bb-------------------------------------|
Gb-16--16--16--16--16-16--9/11/13/11---|
Db-X---X---X---X---X--X---X-X--X--X----|
Ab-14--14--14--14--14-14--7/9/-11\9----|
Eb-------------------------------------|

[Chorus]
eb-----------------------------------------------------------------------------------------------------------|
Bb-----------------------------------------------------------------------------------------------------------|
Gb-9-9-9--9-9-9--9-9-9--9-9-9--6-6-6--6-6-6--6-6-6--6-6-6----------------------------------------------------|
Db-9-9-9--9-9-9--9-9-9--9-9-9--6-6-6--6-6-6--6-6-6--6-6-6--4-4-4--4-4-4--4-4-4--4-4-4--7-7-7--7-7-7-------7b-|
Ab-7-7-7--7-7-7--7-7-7--7-7-7--4-4-4--4-4-4--4-4-4--4-4-4--4-4-4--4-4-4--4-4-4--4-4-4--7-7-7--7-7-7---7------|
Eb---------------------------------------------------------2-2-2--2-2-2--2-2-2--2-2-2--5-5-5--5-5-5-7---7----|

eb----------------------------------------------------------------------------------------------------------|
Bb----------------------------------------------------------------------------------------------------------|
Gb-9-9-9--9-9-9--8-8-8--11-9-8-9-8-6--6-6-6--6-6-6--6-6-6--6-6-6--------------------------------------------|
Db-9-9-9--9-9-9--9-9-9--X--X-X-X-X-X--6-6-6--6-6-6--6-6-6--6-6-6--4-4-4--4-4-4--4-4-4--4-4-4--7-7-7--7-7-7--|
Ab-7-7-7--7-7-7--7-7-7--9--7-6-7-6-4--4-4-4--4-4-4--4-4-4--4-4-4--4-4-4--4-4-4--4-4-4--4-4-4--7-7-7--7-7-7--|
Eb----------------------------------------------------------------2-2-2--2-2-2--2-2-2--2-2-2--5-5-5--5-5-5--|

eb----<7>------|
Bb----<7>------|
Gb----<7>------|
Db-------------|
Ab-------------|
Eb-------------|


Repeat verse but start on the 9th fret A string octave and after the next 9th fret play
a harmonic on the 9th,7th,5th of G then play the second half of the verse (Listen to the song and this should
make more sense)
Repeat chorus


[Bridge]
eb-----------------------------------------------------------------------------------------------------------|
Bb-----------------------------------------------------------------------------------------------------------|
Gb-12--12--12--12--12--12---9--9--9--9--9--9---10/11--11--11--11--4---4--4--4---12---12--12--12--12--12--12--|
Db-X---X---X---X---X---X----X--X--X--X--X--X---X--X---X---X---X---X---X--X--X---X----X---X---X---X---X---X---|
Ab-10--10--10--10--10--10---7--7--7--7--7--7---8/-9---9---9---9---2---2--2--2---10---10--10--10--10--10--10--|
Eb-----------------------------------------------------------------------------------------------------------|

eb---------------------------------------------|
Bb---------------------------------------------|
Gb-12-14-16--16--16--16--16--16----------------|
Db-X--X--X---X---X---X---X---X-----------------|
Ab-10-12-14--14--14--14--14--14----------------|
Eb---------------------------------------------|

[Solo] Rhythm
X2-------------
eb----------------------------------|
Bb----------------------------------|
Gb-------4--------------------------|
Db-6-4-----6-4---5-5--5-5--7-7-8-9--|
Ab-----7---------5-5--5-5--7-7-8-9--|
Eb---------------3-3--3-3--5-5-6-7--|

eb---------------------------------------------------------------------------------------------------------|
Bb---------------------------------------------------------------------------------------------------------|
Gb-------4-------------------------------------------------------------------------------------------------|
Db-6-4-----6-4--6-4----6-4------7--5-5--2-2-3-4------------------------------------------------------------|
Ab-----7------------7------7----7--5-5--0-0-1-2------------------------------------------------------------|
Eb------------------------------5--3-3---------------------------------------------------------------------|

[Soft chorus] (Slower and less distortion)
eb----------------------------------------------------------------------------------------------------|
Bb----------------------------------------------------------------------------------------------------|
Gb-9-9-9--9-9-9--9-9-9--9-9-9--6-6-6--6-6-6--6-6-6--6-6-6---------------------------------------------|
Db-9-9-9--9-9-9--9-9-9--9-9-9--6-6-6--6-6-6--6-6-6--6-6-6--4-4-4--4-4-4--4-4-4--4-4-4--7-7-7--7-7-7---|
Ab-7-7-7--7-7-7--7-7-7--7-7-7--4-4-4--4-4-4--4-4-4--4-4-4--4-4-4--4-4-4--4-4-4--4-4-4--7-7-7--7-7-7---|
Eb---------------------------------------------------------2-2-2--2-2-2--2-2-2--2-2-2--5-5-5--5-5-5---|

eb------------------------|
Bb------------------------|
Gb------------------------|
Db-9--9-9-9---------------|
Ab-9--9-9-9---------------|
Eb-7--7-7-7--0-3b---------|


PM-------------------------------------------------------------------------------------|
eb-------------------------------------------------------------------------------------|
Bb-------------------------------------------------------------------------------------|
Gb-9-9-9--9-9-9--9-9-9--9-9-9--6-6-6--6-6-6--6-6-6--6-6-6------------------------------|
Db-9-9-9--9-9-9--9-9-9--9-9-9--6-6-6--6-6-6--6-6-6--6-6-6--6-6-6--6-6-6--6-6-6--6-6-6--|
Ab-7-7-7--7-7-7--7-7-7--7-7-7--4-4-4--4-4-4--4-4-4--4-4-4--6-6-6--6-6-6--6-6-6--6-6-6--|
Eb---------------------------------------------------------4-4-4--4-4-4--4-4-4--4-4-4--|

[Outro] (Distortion back up)
eb-----------------------------------------|
Bb-----------------------------------------|
Gb-14-13-11--------------------------------|
Db----------14-13-11-9-7-------------------|
Ab-----------------------9-7---------------|
Eb-----------------------------------------|

eb-------------------------------------------------------------------------------------|
Bb-------------------------------------------------------------------------------------|
Gb-9-9-9--9-9-9--9-9-9--9-9-9--6-6-6--6-6-6--6-6-6--6-6-6------------------------------|
Db-9-9-9--9-9-9--9-9-9--9-9-9--6-6-6--6-6-6--6-6-6--6-6-6--7-7-7--7-7-7--7-7-7--7-7-7--|
Ab-7-7-7--7-7-7--7-7-7--7-7-7--4-4-4--4-4-4--4-4-4--4-4-4--7-7-7--7-7-7--7-7-7--7-7-7--|
Eb---------------------------------------------------------5-5-5--5-5-5--5-5-5--5-5-5--|

eb---------------------------------|
Bb---------------------------------|
Gb---------------------------------|
Db-9-9-9--9-9-9--9-9-9--9-9-9------|
Ab-9-9-9--9-9-9--9-9-9--9-9-9------|
Eb-7-7-7--7-7-7--7-7-7--7-7-7------|
                                                                                      
                                                                                  
eb-------------------------------------------------------------------------------------|
Bb-------------------------------------------------------------------------------------|
Gb-9-9-9--9-9-9--9-9-9--9-9-9--6-6-6--6-6-6--6-6-6--6-6-6------------------------------|
Db-9-9-9--9-9-9--9-9-9--9-9-9--6-6-6--6-6-6--6-6-6--6-6-6--6-6-6--6-6-6--6-6-6--6-6-6--|
Ab-7-7-7--7-7-7--7-7-7--7-7-7--4-4-4--4-4-4--4-4-4--4-4-4--6-6-6--6-6-6--6-6-6--6-6-6--|
Eb---------------------------------------------------------4-4-4--4-4-4--4-4-4--4-4-4--|

PM--     PM-
eb---------------------------------|
Bb---------------------------------|
Gb---------------------------------|
Db-7--7-7--7--7-7--5-5-7-8-9-2-----|
Ab-7--7-7--7--7-7--5-5-7-8-9-2-----|
Eb-5--5-5--5--5-5--3-3-5-6-7-0-----|

eb--------------------------------------------------------------|
Bb--------------------------------------------------------------|
Gb-------------------------------------------------9------------|
Db-9h11--------------------------------------------9------------|
Ab------11--9-11-12-11-9-7---7--9--12-11-9-12-11-9-7------------|
Eb--------------------------------------------------------------|



************************************

| b   Bend
| /   Slide up
| \   Slide down
| PM  Palm mute
| h   Hammer-on

************************************
Suggest correction
Give kudos to tab author, rate the tab!
1 2 3 4 5
comments
print report bad tab
guest
You may want to rate the tab now too:
select rating
Wanna post a correction for this tab? Suggest correction