Oops, an error
Loading. Please wait.

The Resurrectionist Or An Existential Crisis In C Sharp tab

325 views 48 this week
no commentswrite comment
1 2 3 4 5
x 8
add to favorites
×
Save as Personal and add changes to this tab that will be seen only by you. Learn more ›
×
You can save this tab as Personal to edit and correct it or add notes. All changes will be seen only by you. Learn more »
launch autoscroll
font size
0
reset
how to read this tab
guitar tuner
edit
Autoscroll
slow
fast
+/-
esc
set tempo
stop
[Intro]
C#|-----0-5--5-5--5h7--7-7-7----------------------|
A#|-5h7---7--7-7--7-7--7-7-7----------------------|
F#|-----------------------------------------------|
C#|-----------------------------------------------|
G#|-----------------------------------------------|
C#|-----------------------------------------------|

C#|-----0-5--5-5--5h7--7--------------------------|
A#|-5h7---7--7-7--7-7--7--------------------------|
F#|-----------------------------------------------|
C#|-----------------------------------------------|
G#|-----------------------------------------------|
C#|-----------------------------------------------|

C#|--------------------------------------------0--0-0--0-----|
A#|-5h7p5-3-3-3-3/12--12-12--12--5h7p5-3-3-3---3--3-3--3-----|
F#|------------------------------------------4------------4--|
C#|----------------------------------------------------------|
G#|----------------------------------------------------------|
C#|----------------------------------------------------------|

C#|-----0-5--5-5--5h7--7-7-7----------------------|
A#|-5h7---7--7-7--7-7--7-7-7----------------------|
F#|-----------------------------------------------|
C#|-----------------------------------------------|
G#|-----------------------------------------------|
C#|-----------------------------------------------|

C#|-----0-5--5-5--5h7--7--------------------------|
A#|-5h7---7--7-7--7-7--7--------------------------|
F#|-----------------------------------------------|
C#|-----------------------------------------------|
G#|-----------------------------------------------|
C#|-----------------------------------------------|

C#|-------------------------------------------------------0--0-0--0--------|
A#|-5h7p5-3-3-3-3/12--12-12--15--15--15-15--5h7p5-3-3-3---3--3-3--3--------|
F#|-----------------------------------------------------4------------------|
C#|------------------------------------------------------------------0-----|
G#|------------------------------------------------------------------0-----|
C#|------------------------------------------------------------------0-----|

[Pre-Verse]
C#|-----------------------------------------------|
A#|-----------------------------------------------|
F#|-7-7--7-7-7-7-7--------------------------------|
C#|-7-7--7-7-7-7-7--5-5-5-5-7-7-------------------|
G#|-5-5--5-5-5-5-5--5-5-5-5-7-7-------------------|
C#|-0-0--0-0-0-0-0--5-5-5-5-7-7-------------------|

C#|-----------------------------------------------|
A#|-----------------------------------------------|
F#|-7-7--7-7-7-7-7--------------------------------|
C#|-7-7--7-7-7-7-7--5-5-5-5-4-0-------------------|
G#|-5-5--5-5-5-5-5--5-5-5-5-4-0-------------------|
C#|-0-0--0-0-0-0-0--5-5-5-5-4-0-------------------|

[Verse]
C#|-----------------------------------------------|
A#|-----------------------------------------------|
F#|-----------------------------------------------|
C#|-----------------------------------------------|
G#|--------4h5-5-4h5-5-4h5-7--7-7-----------------|
C#|-0--0-0----------------------------------------|

C#|-----------------------------------------------|
A#|-----------------------------------------------|
F#|-----------------------------------------------|
C#|-----------------------------------------------|
G#|--------4h5-5-4h5-5-4h5-7--7-7-----------------|
C#|-0--0-0----------------------------------------|

C#|-----------------------------------------------|
A#|-----------------------------------------------|
F#|-----------------------------------------------|
C#|-5--5------------------------------------------|
G#|-5--5-4h5-5-4h5-5-4h5-7--7-7-------------------|
C#|-5--5------------------------------------------|

C#|-----------------------------------------------|
A#|-----------------------------------------------|
F#|-----------------------------------------------|
C#|-5--5---------5-7-5-4-5-4----------------------|
G#|-5--5-4h5-5-5-------------5--------------------|
C#|-5--5------------------------------------------|

C#|-----------------------------------------------|
A#|-----------------------------------------------|
F#|-----------------------------------------------|
C#|-----------------------------------------------|
G#|--------4h5-5-4h5-5-4h5-7--7-7-----------------|
C#|-0--0-0----------------------------------------|

C#|-----------------------------------------------|
A#|-----------------------------------------------|
F#|-----------------------------------------------|
C#|-----------------------------------------------|
G#|--------4h5-5-4h5-5-4h5-7--7-7-----------------|
C#|-0--0-0----------------------------------------|

C#|-----------------------------------------------|
A#|-----------------------------------------------|
F#|-----------------------------------------------|
C#|-5--5------------------------------------------|
G#|-5--5-4h5-5-4h5-5-4h5-7--7-7-------------------|
C#|-5--5------------------------------------------|

C#|-----------------------------------------------|
A#|-----------------------------------------------|
F#|-----------------------------------------------|
C#|-5--5---------5-7-5-4-5-4----------------------|
G#|-5--5-4h5-5-5-------------5--------------------|
C#|-5--5------------------------------------------|

[Chorus]
C#|------------------------------------------------------------|
A#|------------------------------------------------------------|
F#|------11--11-11--9--9-9-7-7--------11--11-14-7--7--7-9-9----|
C#|-------x---x--x--x--x-x-x-x--------x---x--x--x--x--x-x-x----|
G#|-------9---9--9--7--7-7-5-5--------9---9--12-5--5--5-7-7----|
C#|-0--0--0---0--0--0--0-0-0-0--0--0--0---0--0--0--0--0-0-0----|

C#|---------------9-9-9-9-9-----------------------|
A#|---------------7-7-7-7-7-----------------------|
F#|---------------x-x-x-x-x-----------------------|
C#|-5--5--5--5-5--5-5-5-5-5-----------------------|
G#|-5--5--5--5-5--5-5-5-5-5-----------------------|
C#|-5--5--5--5-5--5-5-5-5-5-----------------------|

C#|---------------9-9-9-9-9--x-x-x-x-x-x----------|
A#|---------------7-7-7-7-7--x-x-x-x-x-x----------|
F#|---------------x-x-x-x-x--x-x-x-x-x-x----------|
C#|-5--5--5--5-5--5-5-5-5-5--x-x-x-x-x-x----------|
G#|-5--5--5--5-5--5-5-5-5-5--x-x-x-x-x-x----------|
C#|-5--5--5--5-5--5-5-5-5-5--x-x-x-x-x-x----------|

C#|------------------------------------------------------------|
A#|------------------------------------------------------------|
F#|------11--11-11--9--9-9-7-7--------11--11-14-7--7--7-9-9----|
C#|-------x---x--x--x--x-x-x-x--------x---x--x--x--x--x-x-x----|
G#|-------9---9--9--7--7-7-5-5--------9---9--12-5--5--5-7-7----|
C#|-0--0--0---0--0--0--0-0-0-0--0--0--0---0--0--0--0--0-0-0----|

C#|---------------9-9-9-9-9-----------------------|
A#|---------------7-7-7-7-7-----------------------|
F#|---------------x-x-x-x-x-----------------------|
C#|-5--5--5--5-5--5-5-5-5-5-----------------------|
G#|-5--5--5--5-5--5-5-5-5-5-----------------------|
C#|-5--5--5--5-5--5-5-5-5-5-----------------------|

C#|---------------9-9-9-9-9--x-x-x-x-x-x----------|
A#|---------------7-7-7-7-7--x-x-x-x-x-x----------|
F#|---------------x-x-x-x-x--x-x-x-x-x-x----------|
C#|-5--5--5--5-5--5-5-5-5-5--x-x-x-x-x-x----------|
G#|-5--5--5--5-5--5-5-5-5-5--x-x-x-x-x-x----------|
C#|-5--5--5--5-5--5-5-5-5-5--x-x-x-x-x-x----------|

[Bridge]
C#|-----------------------------------------------|
A#|-----------------------------------------------|
F#|------11-12-11--14--14-------------------------|
C#|------x--x--x---x---x--------------------------|
G#|------9--10-9---12--12-12h14p12\9--------------|
C#|-0--0------------------------------------------|

C#|-----------------------------------------------|
A#|-----------------------------------------------|
F#|------11-12-12--7--7-7/9-----------------------|
C#|------x--x--x---x--x-x-x-----------------------|
G#|------9--10-9---5--5-5/7-----------------------|
C#|-0--0------------------------------------------|

C#|-----------------------------------------------|
A#|-----------------------------------------------|
F#|------11-12-11--14--14-------------------------|
C#|-5--5-x--x--x---x---x--------------------------|
G#|-5--5-9--10-9---12--12-12h14p12\9--------------|
C#|-5--5------------------------------------------|

C#|-----------------------------------------------|
A#|-----------------------------------------------|
F#|------11-12-11--9--9-9\7-7---------------------|
C#|-5--5-x--x--x---x--x-x-x-x---------------------|
G#|-5--5-9--10-9---7--7-7\5-5---------------------|
C#|-5--5------------------------------------------|

[Bridge/Chorus]
C#|-------------------------------------------------|
A#|-------------------------------------------------|
F#|-------------------------------------------------|
C#|-------------------------------------------------|
G#|-------9--9-9-7-10-10-10-10--9-9-12-7--7-7-9-9---|
C#|-0--0--0--0-0-0-0--0--0--0---0-0-0--0--0-0-0-0---|

C#|------------------------------------------------------|
A#|------------------------------------------------------|
F#|------------------------------------------------------|
C#|-------2--2-4-4-0-0-0--------4--4-4-4-4-4-5-5-5-4-5-4-|
G#|-0--0--0--0-0-0-0-0-0--0--0--0--0-0-0-0-0-0-0-0-0-0-0-|
C#|------------------------------------------------------|

C#|-------------------------------------------------|
A#|-------------------------------------------------|
F#|-------------------------------------------------|
C#|-------------------------------------------------|
G#|-------9--9-9-7-10-10-10-10--9-9-12-7--7-7-9-9---|
C#|-0--0--0--0-0-0-0--0--0--0---0-0-0--0--0-0-0-0---|

C#|-------------------------------------x-x-x-x-x-x---------------|
A#|-------------------------------------x-x-x-x-x-x---------------|
F#|-------------------------------------x-x-x-x-x-x---------------|
C#|-4--4--4--4--4--4--4--4--------------x-x-x-x-x-x---------------|
G#|-4--4--4--4--4--4--4--4--7--5-5-5-5--x-x-x-x-x-x---------------|
C#|-4--4--4--4--4--4--4--4--5--5-5-5-5--x-x-x-x-x-x---------------|

[Verse]
C#|-----------------------------------------------|
A#|-----------------------------------------------|
F#|-----------------------------------------------|
C#|-----------------------------------------------|
G#|--------4h5-5-4h5-5-4h5-7--7-7-----------------|
C#|-0--0-0----------------------------------------|

C#|-----------------------------------------------|
A#|-----------------------------------------------|
F#|-----------------------------------------------|
C#|-----------------------------------------------|
G#|--------4h5-5-4h5-5-4h5-5-4--------------------|
C#|-0--0-0---------------------7------------------|

C#|-------------------------x-x-x-x-x-x-x---------|
A#|-------------------------x-x-x-x-x-x-x---------|
F#|-------------------------x-x-x-x-x-x-x---------|
C#|-5--5--5-5-5--5-5-5-5-5--x-x-x-x-x-x-x---------|
G#|-5--5--5-5-5--5-5-5-5-5--x-x-x-x-x-x-x---------|
C#|-5--5--5-5-5--5-5-5-5-5--x-x-x-x-x-x-x---------|

C#|-----------------------------------------------|
A#|-----------------------------------------------|
F#|-----------------------------------------------|
C#|-----------------------------------------------|
G#|--------4h5-5-4h5-5-4h5-7--7-7-----------------|
C#|-0--0-0----------------------------------------|

C#|-----------------------------------------------|
A#|-----------------------------------------------|
F#|-----------------------------------------------|
C#|-----------------------------------------------|
G#|--------4h5-5-4h5-5-4h5-5-4--------------------|
C#|-0--0-0---------------------7------------------|

C#|-------------------------x-x-x-x-x-x-x---------|
A#|-------------------------x-x-x-x-x-x-x---------|
F#|-------------------------x-x-x-x-x-x-x---------|
C#|-5--5--5-5-5--5-5-5-5-5--x-x-x-x-x-x-x---------|
G#|-5--5--5-5-5--5-5-5-5-5--x-x-x-x-x-x-x---------|
C#|-5--5--5-5-5--5-5-5-5-5--x-x-x-x-x-x-x---------|

[Bridge]
C#|-----------------------------------------------|
A#|-----------------------------------------------|
F#|------11-12-11--14--14-------------------------|
C#|------x--x--x---x---x--------------------------|
G#|------9--10-9---12--12-12h14p12\9--------------|
C#|-0--0------------------------------------------|

C#|-----------------------------------------------|
A#|-----------------------------------------------|
F#|------11-12-11--7--7-7/9-----------------------|
C#|------x--x--x---x--x-x-x-----------------------|
G#|------9--10-9---5--5-5/7-----------------------|
C#|-0--0------------------------------------------|

C#|-----0-5--5-5--5h7--7-7-7----------------------|
A#|-5h7---7--7-7--7-7--7-7-7----------------------|
F#|-----------------------------------------------|
C#|-----------------------------------------------|
G#|-----------------------------------------------|
C#|-----------------------------------------------|

C#|-----0-5--5-5--5h7--7--------------------------|
A#|-5h7---7--7-7--7-7--7--------------------------|
F#|-----------------------------------------------|
C#|-----------------------------------------------|
G#|-----------------------------------------------|
C#|-----------------------------------------------|

C#|----------------5--5--5-4-2-0-----------------------------|
A#|-5h7p5-3-3-3-3--3--3--3-3-3-3-----------------------------|
F#|----------------------------------------------------------|
C#|----------------------------------------------------------|
G#|----------------------------------------------------------|
C#|----------------------------------------------------------|

C#|----------------------------------------------------------------------------------|
A#|--------------------------------------------------------------------3-------------|
F#|----------14/16--12--12--12--12/14--11--11--11-9/11-11/12--14--16---4--2----------|
C#|-0--0--0--x--x---x---x---x---x--x---x---x---x--x-x--x--x---x---x----4--2--5--4----|
G#|-0--0--0--12/14--10--10--10--10/12--9---9---9--7/9--9/-10--12--14---2--0--5--4----|
C#|-0--0--0--0--0---0---0---0---0--0---0---0---0--0-0--0--0---0---0----------5--4----|

                                           PM-------------------------------
C#|------------------------------------------------------------------------------|
A#|-3----------------------------------------------------------------------------|
F#|-4--14-14-14--14-14--2--14-14-14--14-14---------------------------------------|
C#|-4--x--x--x---x--x---2--x--x--x---x--x---4-4-4-4-4-4-4-4-5-5-5-5-5-5-5-5------|
G#|-2--12-12-12--12-12--0--12-12-12--12-12--4-4-4-4-4-4-4-4-5-5-5-5-5-5-5-5------|
C#|-----------------------------------------4-4-4-4-4-4-4-4-5-5-5-5-5-5-5-5------|

[Solo bit]
C#|-----------------------------------------------|
A#|-----------------------------------------------|
F#|-----------------------------------------------|
C#|-----------------------------------------------|
G#|--------4h5-5-4h5-5-4h5-7--7-7-----------------|
C#|-0--0-0----------------------------------------|

C#|----------------------------------------------------------------|
A#|----------------------------------------------------------------|
F#|--------------------------------12-14-12-11-12-11---------------|
C#|--------2h4-4-2h4-4-2h4-5--5-5--------------------12------------|
G#|----------------------------------------------------------------|
C#|-0--0-0---------------------------------------------------------|

C#|------------------------------------------------|
A#|------------------------------------------------|
F#|------------------------------------------------|
C#|--------2h4-4-2h4-4-2h4-5--5-5------------------|
G#|------------------------------------------------|
C#|-0--0-0-----------------------------------------|

C#|------------------------------------------------|
A#|------------------------------------------------|
F#|------------------------------------------------|
C#|--------2h4-4-2h4-4-2h4-5--5-5------------------|
G#|------------------------------------------------|
C#|-0--0-0-----------------------------------------|

C#|------------------------------------------------|
A#|------------------------------------------------|
F#|------------------------------------------------|
C#|-5--5-5-2h4-4-2h4-4-2h4-5--5-5------------------|
G#|-5--5-5-----------------------------------------|
C#|-5--5-5-----------------------------------------|

C#|----------------------------------------------------------------|
A#|----------------------------------------------------------------|
F#|--------------------------------12-14-12-11-12-11---------------|
C#|-5--5-5-2h4-4-2h4-4-2h4-5--5-5--------------------12------------|
G#|-5--5-5---------------------------------------------------------|
C#|-5--5-5---------------------------------------------------------|

C#|-----------------------------------------------|
A#|-----------------------------------------------|
F#|------11-12-11--14--14-------------------------|
C#|------x--x--x---x---x--------------------------|
G#|------9--10-9---12--12-12h14p12\9--------------|
C#|-0--0------------------------------------------|

C#|-----------------------------------------------|
A#|-----------------------------------------------|
F#|------11-12-11--7--7-7/9-----------------------|
C#|------x--x--x---x--x-x-x-----------------------|
G#|------9--10-9---5--5-5/7-----------------------|
C#|-0--0------------------------------------------|

C#|-----------------------------------------------|
A#|-----------------------------------------------|
F#|------11-12-11--14--14-------------------------|
C#|------x--x--x---x---x--------------------------|
G#|------9--10-9---12--12-12h14p12\9--------------|
C#|-0--0------------------------------------------|

C#|-----------------------------------------------|
A#|-----------------------------------------------|
F#|------11-12-11--7--7-7/9-----------------------|
C#|------x--x--x---x--x-x-x-----------------------|
G#|------9--10-9---5--5-5/7-----------------------|
C#|-0--0------------------------------------------|

C#|---------------|
A#|-3-------------|
F#|-4--2----------|
C#|-4--2--5--4----|
G#|-2--0--5--4----|
C#|-------5--4----|

C#|-----------------------------------------------|
A#|-----------------------------------------------|
F#|------11-12-11--14--14-------------------------|
C#|------x--x--x---x---x--------------------------|
G#|------9--10-9---12--12-12h14p12\9--------------|
C#|-0--0------------------------------------------|

C#|-----------------------------------------------|
A#|-----------------------------------------------|
F#|------11-12-11--7--7-7/9-----------------------|
C#|------x--x--x---x--x-x-x-----------------------|
G#|------9--10-9---5--5-5/7-----------------------|
C#|-0--0------------------------------------------|

C#|-----------------------------------------------|
A#|-----------------------------------------------|
F#|------11-12-11--14--14-------------------------|
C#|------x--x--x---x---x--------------------------|
G#|------9--10-9---12--12-12h14p12\9--------------|
C#|-0--0------------------------------------------|

C#|-----------------------------------------------|
A#|-----------------------------------------------|
F#|------11-12-11--7--7-7/9-----------------------|
C#|------x--x--x---x--x-x-x-----------------------|
G#|------9--10-9---5--5-5/7-----------------------|
C#|-0--0------------------------------------------|

[Outro]
C#|----------------------------------------------------------------------------|
A#|----------------------------------------------------------------------------|
F#|-11-9-11-12--11-9-12/11/12-11-9-11-12--11--9--9/11--------------------------|
C#|-x--x-x--x---x--x-x--x--x--x--x-x--x---x---x--x-x---------------------------|
G#|-9--7-9--10--9--7-10\9/10--9--7-9--10--9---7--7/9---9~~~~~~~\5~~~~~~~~------|
C#|-0--0-0--0---0-------------0--0-0--0----------------------------------------|


************************************

| h   Hammer-on
| p   Pull-off
| /   Slide up
| x   Dead note
| \   Slide down
| PM  Palm mute
| ~   Vibrato

************************************
Suggest correction
Creating personal tab
Creating personal tab
You can edit any tab online and save it as your Personal.

You can edit, replace or remove any tab part or add personal notes – all changes will be seen only by you.

Personal tabs can be accessed anytime from any device, even offline.
Learn more »
comments
print report bad tab
guest
You may want to rate the tab now too:
select rating
Wanna post a correction for this tab? Suggest correction