Oops, an error
Loading. Please wait.

Veinsveinsveins tab

292 views 6 this week
no commentswrite comment
1 2 3 4 5
1 last vote to show rating
add to favorites
×
Save as Personal and add changes to this tab that will be seen only by you. Learn more ›
×
You can save this tab as Personal to edit and correct it or add notes. All changes will be seen only by you. Learn more »
launch autoscroll
font size
0
reset
how to read this tab
guitar tuner
edit
Autoscroll
slow
fast
+/-
esc
set tempo
stop
Author
[Intro]
eb|-------------------------------------------------------------------|
Bb|-8--8--8--8--8-8-8-8-----------------------------------------------|
Gb|-9--9--9--9--9-9-9-9-----------------------------------------------|
Db|-9--9--9--9--9-9-9-9-9--9--9-9-10--10-10-10-9-9-7-7----------------| 
Ab|-7--7--7--7--7-7-7-7-9--9--9-9-------------------------------------|
Eb|-0--0--0--0--0-0-0-0-7--7--7-7-------------------------------------|(x3)

eb|---------------------------------------------------------|
Bb|-8--8--8--8--8-8-8-8-------------------------------------|
Gb|-9--9--9--9--9-9-9-9-------------------------------------|
Db|-9--9--9--9--9-9-9-9-9--9-9-9-9-5-5-5-4-4-4--------------|
Ab|-7--7--7--7--7-7-7-7-9--9-9-9-9-5-5-5-4-4-4--------------|
Eb|-0--0--0--0--0-0-0-0-7--7-7-7-7-3-3-3-2-2-2--------------|

[Verse]
eb|------------------------------------------------------------------|
Bb|------------------------------------------------------------------|
Gb|------------------------------8-9-11-11-9-8--4--------------------|
Db|-2--2-2--2-2-2-5--5-5--5-5-5--x-x-x--x--x-x--x--------------------| 
Ab|-2--2-2--2-2-2-5--5-5--5-5-5--6-7-9--9--7-6--2--------------------|
Eb|-0--0-0--0-0-0-3--3-3--3-3-3--------------------------------------|

eb|------------------------------------------------------------------|
Bb|------------------------------------------------------------------|
Gb|------------------------------4-5-4--10-12-9----------------------|
Db|-2--2-2--2-2-2-7--7-7--7-7-7--x-x-x--x--x--x----------------------| 
Ab|-2--2-2--2-2-2-7--7-7--7-7-7--2-3-2--8--10-7----------------------|
Eb|-0--0-0--0-0-0-5--5-5--5-5-5--------------------------------------|

eb|------------------------------------------------------------------|
Bb|------------------------------------------------------------------|
Gb|------------------------------7--7-7--7-7-7-----------------------|
Db|-2--2-2--2-2-2--7--7-7--7-7-7-7--7-7--7-7-7-5-5-5-5-4-4-4-4-------|
Ab|-2--2-2--2-2-2--7--7-7--7-7-7-5--5-5--5-5-5-5-5-5-5-4-4-4-4-------|
Eb|-0--0-0--0-0-0--5--5-5--5-5-5---------------3-3-3-3-2-2-2-2-------|

eb|--------------------------------------------------------------------------------|
Bb|--------------------------------------------------------------------------------|
Gb|------------------------4-4-4-4-4-5-4-4-4-4-4-5-7-7-7-7-7-8-7-7-7-7-11-11-11-11-|
Db|-2--2-2--2-2-2-7-7-7-7--4-4-4-4-4-5-4-4-4-4-4-5-7-7-7-7-7-8-7-7-7-7-11-11-11-11-|
Ab|-2--2-2--2-2-2-7-7-7-7--2-2-2-2-2-3-2-2-2-2-2-3-5-5-5-5-5-6-5-5-5-5-9--9--9--9--|
Eb|-0--0-0--0-0-0-5-5-5-5----------------------------------------------------------|

[Chorus]
eb|------------------------------------------------------------|
Bb|------------------------------------------------------------|
Gb|-----------------7-7-7-7-7-7-7-7----------------------------|
Db|-5-5-5-5-5-5-5-5-7-7-7-7-7-7-7-7-4-4-4-4-4-4-4-4--9--7------|
Ab|-5-5-5-5-5-5-5-5-5-5-5-5-5-5-5-5-4-4-4-4-4-4-4-4--9--7------|
Eb|-3-3-3-3-3-3-3-3-----------------2-2-2-2-2-2-2-2--7--5------|

eb|------------------------------------------------------------------|
Bb|------------------------------------------------------------------|
Gb|-----------------7-7-7-7-7-7-7-7----------------------------------|
Db|-5-5-5-5-5-5-5-5-7-7-7-7-7-7-7-7-7-7-7-7-7-7-7-4------------------|
Ab|-5-5-5-5-5-5-5-5-5-5-5-5-5-5-5-5-7-7-7-7-7-7-7-4------------------|
Eb|-3-3-3-3-3-3-3-3-----------------5-5-5-5-5-5-5-2------------------|

eb|------------------------------------------------------------|
Bb|------------------------------------------------------------|
Gb|-----------------7-7-7-7-7-7-7-7----------------------------|
Db|-5-5-5-5-5-5-5-5-7-7-7-7-7-7-7-7-4-4-4-4-4-4-4-4--9--7------|
Ab|-5-5-5-5-5-5-5-5-5-5-5-5-5-5-5-5-4-4-4-4-4-4-4-4--9--7------|
Eb|-3-3-3-3-3-3-3-3-----------------2-2-2-2-2-2-2-2--7--5------|


eb|------------------------------------------------------------------|
Bb|------------------------------------------------------------------|
Gb|-----------------7-7-7-7-7-7-7-7----------------------------------|
Db|-5-5-5-5-5-5-5-5-7-7-7-7-7-7-7-7-7-7-7-7-7-7-7--------------------|
Ab|-5-5-5-5-5-5-5-5-5-5-5-5-5-5-5-5-7-7-7-7-7-7-7--------------------|
Eb|-3-3-3-3-3-3-3-3-----------------5-5-5-5-5-5-5--------------------|

[Instrumental]
eb|-------------------------------------------------------------------|
Bb|-8--8--8--8--8-8-8-8-----------------------------------------------|
Gb|-9--9--9--9--9-9-9-9-----------------------------------------------|
Db|-9--9--9--9--9-9-9-9-9--9--9-9-10--10-10-10-9-9-7-7----------------| 
Ab|-7--7--7--7--7-7-7-7-9--9--9-9-------------------------------------|
Eb|-0--0--0--0--0-0-0-0-7--7--7-7-------------------------------------|(x3)

eb|---------------------------------------------------------|
Bb|-8--8--8--8--8-8-8-8-------------------------------------|
Gb|-9--9--9--9--9-9-9-9-------------------------------------|
Db|-9--9--9--9--9-9-9-9-9--9-9-9-9-5-5-5-4-4-4--------------|
Ab|-7--7--7--7--7-7-7-7-9--9-9-9-9-5-5-5-4-4-4--------------|
Eb|-0--0--0--0--0-0-0-0-7--7-7-7-7-3-3-3-2-2-2--------------|

[Verse]
eb|------------------------------------------------------------------|
Bb|------------------------------------------------------------------|
Gb|------------------------------8-9-11-11-9-8--4--------------------|
Db|-2--2-2--2-2-2-5--5-5--5-5-5--x-x-x--x--x-x--x--------------------| 
Ab|-2--2-2--2-2-2-5--5-5--5-5-5--6-7-9--9--7-6--2--------------------|
Eb|-0--0-0--0-0-0-3--3-3--3-3-3--------------------------------------|

eb|------------------------------------------------------------------|
Bb|------------------------------------------------------------------|
Gb|------------------------------4-5-4--10-12-9----------------------|
Db|-2--2-2--2-2-2-7--7-7--7-7-7--x-x-x--x--x--x----------------------| 
Ab|-2--2-2--2-2-2-7--7-7--7-7-7--2-3-2--8--10-7----------------------|
Eb|-0--0-0--0-0-0-5--5-5--5-5-5--------------------------------------|

eb|------------------------------------------------------------------|
Bb|------------------------------------------------------------------|
Gb|------------------------------7--7-7--7-7-7-----------------------|
Db|-2--2-2--2-2-2--7--7-7--7-7-7-7--7-7--7-7-7-5-5-5-5-4-4-4-4-------|
Ab|-2--2-2--2-2-2--7--7-7--7-7-7-5--5-5--5-5-5-5-5-5-5-4-4-4-4-------|
Eb|-0--0-0--0-0-0--5--5-5--5-5-5---------------3-3-3-3-2-2-2-2-------|

eb|--------------------------------------------------------------------------------|
Bb|--------------------------------------------------------------------------------|
Gb|------------------------4-4-4-4-4-5-4-4-4-4-4-5-7-7-7-7-7-8-7-7-7-7-11-11-11-11-|
Db|-2--2-2--2-2-2-7-7-7-7--4-4-4-4-4-5-4-4-4-4-4-5-7-7-7-7-7-8-7-7-7-7-11-11-11-11-|
Ab|-2--2-2--2-2-2-7-7-7-7--2-2-2-2-2-3-2-2-2-2-2-3-5-5-5-5-5-6-5-5-5-5-9--9--9--9--|
Eb|-0--0-0--0-0-0-5-5-5-5----------------------------------------------------------|

[Chorus]
eb|------------------------------------------------------------|
Bb|------------------------------------------------------------|
Gb|-----------------7-7-7-7-7-7-7-7----------------------------|
Db|-5-5-5-5-5-5-5-5-7-7-7-7-7-7-7-7-4-4-4-4-4-4-4-4--9--7------|
Ab|-5-5-5-5-5-5-5-5-5-5-5-5-5-5-5-5-4-4-4-4-4-4-4-4--9--7------|
Eb|-3-3-3-3-3-3-3-3-----------------2-2-2-2-2-2-2-2--7--5------|

eb|------------------------------------------------------------------|
Bb|------------------------------------------------------------------|
Gb|-----------------7-7-7-7-7-7-7-7----------------------------------|
Db|-5-5-5-5-5-5-5-5-7-7-7-7-7-7-7-7-7-7-7-7-7-7-7-4------------------|
Ab|-5-5-5-5-5-5-5-5-5-5-5-5-5-5-5-5-7-7-7-7-7-7-7-4------------------|
Eb|-3-3-3-3-3-3-3-3-----------------5-5-5-5-5-5-5-2------------------|

eb|------------------------------------------------------------|
Bb|------------------------------------------------------------|
Gb|-----------------7-7-7-7-7-7-7-7----------------------------|
Db|-5-5-5-5-5-5-5-5-7-7-7-7-7-7-7-7-4-4-4-4-4-4-4-4--9--7------|
Ab|-5-5-5-5-5-5-5-5-5-5-5-5-5-5-5-5-4-4-4-4-4-4-4-4--9--7------|
Eb|-3-3-3-3-3-3-3-3-----------------2-2-2-2-2-2-2-2--7--5------|


eb|------------------------------------------------------------------|
Bb|------------------------------------------------------------------|
Gb|-----------------7-7-7-7-7-7-7-7----------------------------------|
Db|-5-5-5-5-5-5-5-5-7-7-7-7-7-7-7-7-7-7-7-7-7-7-7--------------------|
Ab|-5-5-5-5-5-5-5-5-5-5-5-5-5-5-5-5-7-7-7-7-7-7-7--------------------|
Eb|-3-3-3-3-3-3-3-3-----------------5-5-5-5-5-5-5--------------------|


[Bridge/Outro]
eb|--------------------------------------------------------|
Bb|--------------------------------------------------------|
Gb|-7--7--7--7--7--7--7--7---------------------------------|
Db|-7--7--7--7--7--7--7--7-7--7--7--7--7--7--7--7----------|(x3)
Ab|-5--5--5--5--5--5--5--5-7--7--7--7--7--7--7--7----------|
Eb|------------------------5--5--5--5--5--5--5--5----------|

eb|-----------------------------------------------------------------------|
Bb|-----------------------------------------------------------------------|
Gb|-----------------------------------------------------------------------|
Db|-5--5-5--5-5-5--5--5-5--5-5-5-7--7-7--7-7-7--7--7-7--7-7-7-------------|
Ab|-5--5-5--5-5-5--5--5-5--5-5-5-7--7-7--7-7-7--7--7-7--7-7-7-------------|
Eb|-3--3-3--3-3-3--3--3-3--3-3-3-5--5-5--5-5-5--5--5-5--5-5-5-------------|

eb|--------------------------------------------------------|
Bb|--------------------------------------------------------|
Gb|-7--7--7--7--7--7--7--7---------------------------------|
Db|-7--7--7--7--7--7--7--7-7--7--7--7--7--7--7--7----------|(x3)
Ab|-5--5--5--5--5--5--5--5-7--7--7--7--7--7--7--7----------|
Eb|------------------------5--5--5--5--5--5--5--5----------|

eb|-------------------------------------------------------0---------------|
Bb|-------------------------------------------------------0---------------|
Gb|-------------------------------7--7-7------------------1---------------|
Db|-5--5-5--5-5-5--5--5-5--5-5-5--7--7-7--7-5-4-3-2-3-5-3-2---------------|
Ab|-5--5-5--5-5-5--5--5-5--5-5-5--5--5-5--7-5-4-3-2-3-5-3-2---------------|
Eb|-3--3-3--3-3-3--3--3-3--3-3-3----------5-3-2-1-0-1-3-1-0---------------|


************************************

| b  Bend
| x  Dead note

************************************

            
            
Suggest correction
Creating personal tab
Creating personal tab
You can edit any tab online and save it as your Personal.

You can edit, replace or remove any tab part or add personal notes – all changes will be seen only by you.

Personal tabs can be accessed anytime from any device, even offline.
Learn more »
Give kudos to tab author, rate the tab!
1 2 3 4 5
comments
print report bad tab
guest
You may want to rate the tab now too:
select rating
Wanna post a correction for this tab? Suggest correction