Oops, an error
Loading. Please wait.

Viva Indifference tab

1,096 views 63 this week
1 commentread comment
1 2 3 4 5
x 4
add to favorites
×
Save as Personal and add changes to this tab that will be seen only by you. Learn more ›
×
You can save this tab as Personal to edit and correct it or add notes. All changes will be seen only by you. Learn more »
launch autoscroll
font size
0
reset
how to read this tab
guitar tuner
edit
Autoscroll
slow
fast
+/-
esc
set tempo
stop
Author
[Intro]
 PM------------------    PM-----------
eb|-------------------------------------------------|
Bb|-------------------------------------------------|
Gb|-------------------------------------------------|
Db|-------------------------------------------------|
Ab|-9--9--9--9--9--9--9\--2-2-2-2-2-2-2/------------|
Eb|-10-10-10-10-10-10-10\-3-3-3-3-3-3-3/------------| (x3)

 PM----------      PM-----      PM-----     PM-
eb|----------------------------------------------------------|
Bb|----------------------------------------------------------|
Gb|----------------------------------------------------------|
Db|----------------------------------------------------------|
Ab|-9--9--9--10-9---9--9--10-9---9--9--10-9---9--10--10------|
Eb|-10-10-10-10-10--10-10-10-10--10-10-10-10--10-10--10------|

[Verse]
PM------------------     PM----------  
eb|-------------------------------------------------|
Bb|-------------------------------------------------|
Gb|-------------------------------------------------|
Db|-------------------------------------------------|
Ab|-9--9--9--9--9--9--9\--2-2-2-2-2-2-2/------------|
Eb|-10-10-10-10-10-10-10\-3-3-3-3-3-3-3/------------| (x4)

PM------      PM---    PM----  PM---
eb|-------------------------------------------------|
Bb|-------------------------------------------------|
Gb|-------------------------------------------------|
Db|-------------------------------------------------|
Ab|-9--9--9--9--4-4-4-4--2-2-2-2-2-2-2--------------|
Eb|-10-10-10-10-5-5-5-5--3-3-3-3-3-3-3--------------| (x2)

[Pre-Chorus]
eb|-------------------------------------------------|
Bb|-------------------------------------------------|
Gb|-7--7-7-7-7-7--14--14-14-14-14-14----------------|
Db|-x--x-x-x-x-x--x---x--x--x--x--x-----------------|
Ab|-5--5-5-5-5-5--12--12-12-12-12-12----------------|
Eb|-------------------------------------------------|

eb|-------------------------------------------------|
Bb|-------------------------------------------------|
Gb|-7--7-7-7-7-7--14-14-14-14-14-14-14--------------|
Db|-x--x-x-x-x-x--x--x--x--x--x--x--x---------------|
Ab|-5--5-5-5-5-5--12-12-12-12-12-12-12--------------|
Eb|-------------------------------------------------| 

[Verse]
PM------------------     PM----------  
eb|-------------------------------------------------|
Bb|-------------------------------------------------|
Gb|-------------------------------------------------|
Db|-------------------------------------------------|
Ab|-9--9--9--9--9--9--9\--2-2-2-2-2-2-2/------------|
Eb|-10-10-10-10-10-10-10\-3-3-3-3-3-3-3/------------| (x4)

PM------      PM---    PM----  PM---
eb|-------------------------------------------------|
Bb|-------------------------------------------------|
Gb|-------------------------------------------------|
Db|-------------------------------------------------|
Ab|-9--9--9--9--4-4-4-4--2-2-2-2-2-2-2--------------|
Eb|-10-10-10-10-5-5-5-5--3-3-3-3-3-3-3--------------| (x3)

[Pre-Chorus]
eb|-------------------------------------------------|
Bb|-------------------------------------------------|
Gb|-7-7-7-7-7-7-7-7--14--14-14-14-14-14-------------|
Db|-x-x-x-x-x-x-x-x--x---x--x--x--x--x--------------|
Ab|-5-5-5-5-5-5-5-5--12--12-12-12-12-12-------------|
Eb|-------------------------------------------------|

eb|-------------------------------------------------|
Bb|-------------------------------------------------|
Gb|-7-7-7-7-7-7-7-7--9-9-9-9--9-11-11---------------|
Db|-x-x-x-x-x-x-x-x--x-x-x-x--x-x--x----------------|
Ab|-5-5-5-5-5-5-5-5--7-7-7-7--7-9--9----------------|
Eb|-------------------------------------------------|

[Chorus]
eb|-------------------------------------------------|
Bb|-------------------------------------------------|
Gb|-----------------2--2-2-2-2-2-2------------------|
Db|-5--5-5-5-5-5-5--2--2-2-2-2-2-2------------------|
Ab|-5--5-5-5-5-5-5--0--0-0-0-0-0-0------------------|
Eb|-3--3-3-3-3-3-3----------------------------------|

eb|-------------------------------------------------|
Bb|-------------------------------------------------|
Gb|-7--7-7--2--2-2----------------------------------|
Db|-7--7-7--2--2-2--5-5-5-5-5-5-5-5-5-5-5-5-5-5-5-5-|
Ab|-5--5-5--0--0-0--5-5-5-5-5-5-5-5-5-5-5-5-5-5-5-5-|
Eb|-----------------3-3-3-3-3-3-3-3-3-3-3-3-3-3-3-3-|

eb|-------------------------------------------------|
Bb|-------------------------------------------------|
Gb|-2--2-2-2-2-2-2----------------------------------|
Db|-2--2-2-2-2-2-2----------------------------------|
Ab|-0--0-0-0-0-0-0----------------------------------|
Eb|-------------------------------------------------|

eb|-------------------------------------------------|
Bb|-------------------------------------------------|
Gb|-7--7-7--2--2-2----------------------------------|
Db|-7--7-7--2--2-2--5-5-5-5-5-5-5-5-5-5-5-5-5-5-5-5-|
Ab|-5--5-5--0--0-0--5-5-5-5-5-5-5-5-5-5-5-5-5-5-5-5-|
Eb|-----------------3-3-3-3-3-3-3-3-3-3-3-3-3-3-3-3-|

eb|-------------------------------------------------|
Bb|-------------------------------------------------|
Gb|-2-----------------------------------------------|
Db|-2-----------------------------------------------|
Ab|-0-----------------------------------------------|
Eb|-------------------------------------------------|

[Verse]
PM------------------     PM----------  
eb|-------------------------------------------------|
Bb|-------------------------------------------------|
Gb|-------------------------------------------------|
Db|-------------------------------------------------|
Ab|-9--9--9--9--9--9--9\--2-2-2-2-2-2-2/------------|
Eb|-10-10-10-10-10-10-10\-3-3-3-3-3-3-3/------------| (x4)

PM------      PM---    PM----  PM---
eb|-------------------------------------------------|
Bb|-------------------------------------------------|
Gb|-------------------------------------------------|
Db|-------------------------------------------------|
Ab|-9--9--9--9--4-4-4-4--2-2-2-2-2-2-2--------------|
Eb|-10-10-10-10-5-5-5-5--3-3-3-3-3-3-3--------------| (x3)

[Pre-Chorus]
eb|-------------------------------------------------|
Bb|-------------------------------------------------|
Gb|-7-7-7-7-7-7-7-7--14--14-14-14-14-14-------------|
Db|-x-x-x-x-x-x-x-x--x---x--x--x--x--x--------------|
Ab|-5-5-5-5-5-5-5-5--12--12-12-12-12-12-------------|
Eb|-------------------------------------------------|

eb|-------------------------------------------------|
Bb|-------------------------------------------------|
Gb|-7-7-7-7-7-7-7-7--9-9-9-9--9-11-11---------------|
Db|-x-x-x-x-x-x-x-x--x-x-x-x--x-x--x----------------|
Ab|-5-5-5-5-5-5-5-5--7-7-7-7--7-9--9----------------|
Eb|-------------------------------------------------|

[Chorus]
eb|-------------------------------------------------|
Bb|-------------------------------------------------|
Gb|-----------------2--2-2-2-2-2-2------------------|
Db|-5--5-5-5-5-5-5--2--2-2-2-2-2-2------------------|
Ab|-5--5-5-5-5-5-5--0--0-0-0-0-0-0------------------|
Eb|-3--3-3-3-3-3-3----------------------------------|

eb|-------------------------------------------------|
Bb|-------------------------------------------------|
Gb|-7--7-7--2--2-2----------------------------------|
Db|-7--7-7--2--2-2--5-5-5-5-5-5-5-5-5-5-5-5-5-5-5-5-|
Ab|-5--5-5--0--0-0--5-5-5-5-5-5-5-5-5-5-5-5-5-5-5-5-|
Eb|-----------------3-3-3-3-3-3-3-3-3-3-3-3-3-3-3-3-|

eb|-------------------------------------------------|
Bb|-------------------------------------------------|
Gb|-2--2-2-2-2-2-2----------------------------------|
Db|-2--2-2-2-2-2-2----------------------------------|
Ab|-0--0-0-0-0-0-0----------------------------------|
Eb|-------------------------------------------------|

eb|-------------------------------------------------|
Bb|-------------------------------------------------|
Gb|-7--7-7--2--2-2----------------------------------|
Db|-7--7-7--2--2-2--5-5-5-5-5-5-5-5-5-5-5-5-5-5-5-5-|
Ab|-5--5-5--0--0-0--5-5-5-5-5-5-5-5-5-5-5-5-5-5-5-5-|
Eb|-----------------3-3-3-3-3-3-3-3-3-3-3-3-3-3-3-3-|

eb|-------------------------------------------------|
Bb|-------------------------------------------------|
Gb|-2-----------------------------------------------|
Db|-2-----------------------------------------------|
Ab|-0-----------------------------------------------|
Eb|-------------------------------------------------|

[Bridge]
 PM---------------------------------------------------------    PM---
eb|--------------------------------------------------------------------------------|
Bb|--------------------------------------------------------------------------------|
Gb|-4-4-4-4-4-4-4-4-4-4-4-4-2-2-2-2-2-2-2-2-2-2-2-2-2-2-2-2--2-2-------------------|
Db|-4-4-4-4-4-4-4-4-4-4-4-4-2-2-2-2-2-2-2-2-2-2-2-2-2-2-2-2--2-2--5-5--5-5---------|
Ab|-2-2-2-2-2-2-2-2-2-2-2-2-0-0-0-0-0-0-0-0-0-0-0-0-0-0-0-0--0-0--5-5--5-5---------|
Eb|---------------------------------------------------------------3-3--3-3---------|

 PM----------------------------------------  
eb|--------------------------------------------------------------------------------|
Bb|--------------------------------------------------------------------------------|
Gb|-4-4-4-4-4-4-4-4-4-4-6-6-2-2-2-2-2-2-2-2--2-2--4-4-4-4--2-2---------------------|
Db|-4-4-4-4-4-4-4-4-4-4-6-6-2-2-2-2-2-2-2-2--2-2--4-4-4-4--2-2---------------------|
Ab|-2-2-2-2-2-2-2-2-2-2-4-4-0-0-0-0-0-0-0-0--0-0--2-2-2-2--0-0---------------------|
Eb|------------------------------------------------------------1/12\1--------------|

eb|--------------------------------------------------------------------------------|
Bb|--------------------------------------------------------------------------------|
Gb|-4-4-4-4-4-4-4-4-4-4-4-4-2-2-2-2-2-2-2-2-2-2-2-2-2-2-2-2------------------------|
Db|-4-4-4-4-4-4-4-4-4-4-4-4-2-2-2-2-2-2-2-2-2-2-2-2-2-2-2-2--5-5-5-5---------------|
Ab|-2-2-2-2-2-2-2-2-2-2-2-2-0-0-0-0-0-0-0-0-0-0-0-0-0-0-0-0--5-5-5-5---------------|
Eb|----------------------------------------------------------3-3-3-3---------------|

eb|--------------------------------------------------------------------------------|
Bb|--------------------------------------------------------------------------------|
Gb|-4-4-4-4-4-4-4-4-4-4-6-6-2-2-2-2-2-2-2-2-2-2------------------------------------|
Db|-4-4-4-4-4-4-4-4-4-4-6-6-2-2-2-2-2-2-2-2-2-2--5--4------------------------------|
Ab|-2-2-2-2-2-2-2-2-2-2-4-4-0-0-0-0-0-0-0-0-0-0--5--4------------------------------|
Eb|----------------------------------------------3--2------------------------------|

[Outro]
(These chords are lower pitch because of tuning but it's these shapes)
D                              G                D                                G
You and me we made it through the bullshit,we'd probably get so bored it make us cry
D                                                G                     D
Because we’ve heard of peace but I hope we never find it it’ll make us care

eb|-------------------------------------------------|
Bb|-------------------------------------------------|
Gb|-7-7-7-7-7-7-7-7--14--14-14-14-14-14-------------|
Db|-x-x-x-x-x-x-x-x--x---x--x--x--x--x--------------|
Ab|-5-5-5-5-5-5-5-5--12--12-12-12-12-12-------------|
Eb|-------------------------------------------------|

eb|-------------------------------------------------|
Bb|-------------------------------------------------|
Gb|-7-7-7-7-7-7-7-7--14--14-14-14-14-14-------------|
Db|-x-x-x-x-x-x-x-x--x---x--x--x--x--x--------------|
Ab|-5-5-5-5-5-5-5-5--12--12-12-12-12-12-------------|
Eb|-------------------------------------------------|

eb|----------2--2-2-2-2-2-2-2-----------------------|
Bb|-1--1-----3--3-3-3-3-3-3-3-----------------------|
Gb|-0--0-----2--2-2-2-2-2-2-2-----------------------|
Db|-2--2-----0--0-0-0-0-0-0-0-----------------------|
Ab|-3--3-2------------------------------------------|
Eb|-------------------------------------------------| (x3)

eb|-------------------------------------------------------------------------------|
Bb|-1--1--------------------------------------------------------------------------|
Gb|-0--0-----7--7--7--7--7--7--7--7--12--12--12--12--14--14--14--14---------------|
Db|-2--2-----x--x--x--x--x--x--x--x--x---x---x---x---x---x---x---x----------------|
Ab|-3--3-2---5--5--5--5--5--5--5--5--10--10--10--10--12--12--12--12---------------|
Eb|-------------------------------------------------------------------------------|

eb|----------2--2-2-2-2-2-2-2-----------------------|
Bb|-1--1-----3--3-3-3-3-3-3-3-----------------------|
Gb|-0--0-----2--2-2-2-2-2-2-2-----------------------|
Db|-2--2-----0--0-0-0-0-0-0-0-----------------------|
Ab|-3--3-2------------------------------------------|
Eb|-------------------------------------------------| (x3)

eb|----------2--------------------------------------|
Bb|----------3--------------------------------------|
Gb|-12--11---2--------------------------------------|
Db|-x---x----0--------------------------------------|
Ab|-10--9-------------------------------------------|
Eb|-------------------------------------------------|


************************************

| b   Bend
| /   Slide up
| \   Slide down
| PM  Palm mute
| x   Dead note

************************************

            
            
Suggest correction
Creating personal tab
Creating personal tab
You can edit any tab online and save it as your Personal.

You can edit, replace or remove any tab part or add personal notes – all changes will be seen only by you.

Personal tabs can be accessed anytime from any device, even offline.
Learn more »
comments
print report bad tab
1 comment total.
0 reply
Naumau 58 Jul 22, 2017 01:43 PM

Theres a part missing after the first chorus, and the second part of first verse should be x3 like in the other verses, not x2. Otherwise 5 stars, this is great!

guest
You may want to rate the tab now too:
select rating
Wanna post a correction for this tab? Suggest correction