Oops, an error
Loading. Please wait.

Waltzing Matilda Bass Tab

13 views 1 this week
no commentswrite comment
1 2 3 4 5
2 more votes to show rating
add to favorites
launch autoscroll
font size
0
reset
guitar tuner
Autoscroll
slow
fast
+/-
esc
set tempo
stop
Help us to improve Ultimate-Guitar.com Take our survey!
×
Author
Waltzing Matilda 
This version by Frank Ifield was the original B side of his million
Seller I Remember You. Tab by bass50611. Great Aussie bush tucker song
Not exact but it does fit the song. Note all the key changes
Symbol ‘.’ Are slight pause dots

Intro:
G|--------6--9--6---------------6--9--6------|
D|---6--9---------9--6-----6--9---------9--6-|
A|-7---------------------7-------------------|
E|----------------------7--------------------|

Verse 1:
G|--------------------------------6------------------------------------|
D|-------6--6----------------6--9----9--7--6----------6--6-------------|
A|-7--7--------4--4--------7-----------------9---7--7-------4--4-------|
E|-------------------5--5-----------------------------------------5--5-|

                  ‘.’
G|--------6----------|
D|---6--9------------|
A|-7---------------7-|
E|-----------7--7----|

Chorus 1:
G|--------6--------------------6-------------------------------------|
D|---6--9-----------4-----6--9----------------------6--6-------------|
A|-7-----------4--7-----7----------9--9-------7--7--------4--4-------|
E|-----------5--------------------------7--7--------------------5--5-|

                 ‘.’
G|--------6---------|
D|---6--9-----------|
A|-7--------------7-|
E|-----------7--7---|

Interlude:       ‘.’
G|--------6---------|
D|---6--9-----------|
A|-7--------------8-|
E|-----------7--7---|

Verse 2: (Key is F)
G|-------------------------------7------------------------------------|
D|------7--7----------------7-10---10--8--7-----------7--7------------|
A|-8--8-------5--5-------8-----------------10---8--8-------5--5-------|
E|-----------------6--6------------------------------------------6--6-|

                    ‘.’
G|---------7-----------|
D|---7--10-------------|
A|-8-----------------8-|
E|-------------8--8----|

Chorus 2:
G|---------7--------------------7--------------------------------------|
D|---7--10----------5-----7--10-----------------------7--7-------------|
A|-8-----------5--8-----8----------10--10-------8--8--------5--5-------|
E|-----------6----------------------------8--8--------------------6--6-|

                 ‘.’
G|---------7--------|
D|---7--10----------|
A|-8--------------8-|
E|-----------8--8---|

Interlude:       ‘.’
G|---------7--------|
D|---7--10----------|
A|-8--------------9-|
E|-----------8--8---|

Verse 3: (Key is F#)
G|-------------------------------8-----------------------------------|
D|------8--8---------------8--11---11--9--8-----------8--8-----------|
A|-9--9-------6--6-------9------------------11--9--9-------6--6------|
E|-----------------7--7-----------------------------------------7--7-|

                   ‘.’
G|---------8----------|
D|---8--11------------|
A|-9----------------9-|
E|-------------9--9---|

Chorus 3:
G|---------8--------------------8--------------------------------------|
D|---8--11----------6-----8--11-----------------------8--8-------------|
A|-9-----------6--9-----9----------11--11-------9--9--------6--6-------|
E|-----------7----------------------------9--9--------------------7--7-|

                 ‘.’
G|---------8--------|
D|---8--11----------|
A|-9--------------9-|
E|-----------9--9---|

Interlude:        ‘.’
G|---------8---------|
D|---8--11-----------|
A|-9--------------10-|
E|-----------9--9----|

Verse 4: (Key is G)
G|---------------------------------9--------------------------------------|
D|--------9--9---------------9--12---12--10--9-------------9--9-----------|
A|-10--10------7--7-------10-------------------12---10--10------7--7------|
E|------------------8--8---------------------------------------------8--8-|

                      ‘.’
G|----------9------------|
D|----9--12--------------|
A|-10-----------------10-|
E|-------------10--10----|

Chorus 4:
G|-------------------2--------------------------------------------|
D|--------2-----2--5-----------2------------------------2--2------|
A|---2--5-----3-----------2--5----------5--5-------2--2------3--3-|
E|-3--------------------3----------5--5-------3--3----------------|

G|--------------------------------------|
D|--------2--------5----------2-------5-|
A|---2--5-----5--5-------2--5----5--5---|
E|-3-------------------3----------------|

Outro:
G|------------5--2---------------------------4-|
D|---2-------------5--2---7--4----------4--7---|
A|-----5--2--------------------7--4---5--------|
E|-3-------------------------------------------|

G|-----------------------------------------------|
D|--------2--5--2---------------2--5---2-2-3-4-5-|
A|---2--5---------5--2-----2--5------------------|
E|-3---------------------3-----------------------|

Symbol ‘.’ Are Slight Pause Dots
Suggest correction
Give kudos to tab author, rate the tab!
1 2 3 4 5
comments
print report bad tab
guest
You may want to rate the tab now too:
select rating
Wanna post a correction for this tab? Suggest correction