Oops, an error
Loading. Please wait.

More Than Words tab

by Frank J
18,970 views 1 this week
no commentswrite comment
1 2 3 4 5
2 more votes to show rating
add to favorites
×
Save as Personal and add changes to this tab that will be seen only by you. Learn more ›
×
You can save this tab as Personal to edit and correct it or add notes. All changes will be seen only by you. Learn more »
launch autoscroll
font size
0
reset
how to read this tab
guitar tuner
edit
Autoscroll
slow
fast
+/-
esc
set tempo
stop
Author
-------------------------------------------------------------------------------
                 Frankie J Style+Extreme Style- More Than Words
-------------------------------------------------------------------------------
Tabbed by:quiksilversk45@yahoo.com
Email:quiksilversk45@yahoo.com

everytime i put the X's that means after you hit the strings to stop it from vibrating, 
either pluck e B and G to whatever the previous chord was, or or just pluck them as 
so just experiment haha

Tuning: regular

                         [optional]
         D             [backstroke G]                  Cadd9
e|--------2h3p2-----------3--------------3-x--3--3--x----3---3---x----3--3------|
B|------3-------3-----------3------------3-x--3--3--x----3---3---x----3--3------|
G|----2------------2----------0----------0-x--0--0--x--------0---x----0--0------|
D|--0----------------0----------0--------------------(2)------------------------|
A|--------------------------------2-----------2----------3------x---3-----------|
E|----------------------------------3--3---x------------------------------------|
    Am7                  C      D  Dsus     G                Cadd9
e|--0---0-x----3--3--x------0----2--3--x-----3--x--3--3--x------3--3--x----3-3-x-|
B|--1---1-x----1--1--x------1----3--3--x-----3--x--3--3--x------3--3--x----3-3-x-|
G|--0-----x----------x------0----2--2--x-----0--x--0--0--x---------0--x----0-0-x-|
D|--------x----------x-------------------------------------(2)-------------------|
A|--0-----x--0-------x---3-------------x-----------2------------3-----x--3-----x-|
E|-----------------------------------------3----x--------------------------------|
    Am7                  C       D       Em                Am7           D
e|--0--0--x----3--3--x-----0-x--2--3-x-----0--x--0--0-x----0--0--0--x----2---x-|
B|--1--1--x----1--1--x-----1-x--3--3-x-----0--x--0--0-x----1--1--1--x----3---x-|
G|--0-----x----------x-----0-x--2--2-x-----0--x--0--0-x----0--0-----x----2---x-|
D|--------x----------x---------------x---------------------------------0-----x-|
A|--0-----x--0-------x---3---x-------------------2----x--0----------x----------|
E|--------x----------x------------------0-----x--------------------------------|
    D            G    D+bass     Em               Am7
e|--2--2--x-------3----2---2-x------0-x---0-0-x----0-x-0-0-x--------2-----------|
B|--3--3--x-------3----3---3-x------0-x---0-0-x----1-x-1-1-x------3-------------|
G|--2--2--x-------0----2-----x------0-x---0-0-x----0-x-0---x----2---------------|
D|--0-----x---------------------------x-------x------------x--0-----------------|
A|------------------------------------x-------x-0-------------------------------|
E|-------------3-------2-----x----0---x--0----x---------------------------------|


      G                Cadd9
e|-----3--x--3--3--x------3--3--x----3-3-x-------0--x--0--0--x--------|
B|-----3--x--3--3--x------3--3--x----3-3-x-------3--x--3--3--x--------|
G|-----0--x--------x------0---- x----0-0-x-------2--x--2-----x--------|
D|--------x--------x---(2)---------------x-----0-------------x--------|
A|-----------3------------3-----x--3-----x----------------------------|
E|---3----x------------------------------x----------------------------|


e|-----------------------------------------------------------------------|
B|--------1-------1----------1--------------1---------1---------1--------|
G|------0-------0--------0-------0--------0---------0-------0-------0----|
D|----2-------0--------2---2---2---2----2---------0-------2---2---2---2--|
A|--3-------2--------0----------------3---------2-------0----------------|
E|-----------------------------------------------------------------------|
       D                      G
e|--------2h3p2-------------------3--------------------------------------------------|
B|------3-------3---------------3----------------------------------------------------|
G|----2-----------2-----------0------------------------------------------------------|
D|--0---------------0-------0--------------------------------------------------------|
A|------------------------2----------------------------------------------------------|
E|----------------------3------------------------------------------------------------|


(2)= you push it, but you just don't pluck it.

i know i am missing a part of the song but this is my first tab and it took forever
Suggest correction
Creating personal tab
Creating personal tab
You can edit any tab online and save it as your Personal.

You can edit, replace or remove any tab part or add personal notes – all changes will be seen only by you.

Personal tabs can be accessed anytime from any device, even offline.
Learn more »
Give kudos to tab author, rate the tab!
1 2 3 4 5
comments
print report bad tab
guest
You may want to rate the tab now too:
select rating
Wanna post a correction for this tab? Suggest correction