Oops, an error
Loading. Please wait.

Eyes Like Sky Tab

12,947 views 6 this week
3 commentsread comments
1 2 3 4 5
excellent!
x 7
add to favorites
launch autoscroll
font size
0
reset
how to read this tab
guitar tuner
Autoscroll
slow
fast
+/-
esc
set tempo
stop
Help us to improve Ultimate-Guitar.com Take our survey!
×
Author
-------------------------------------------------------------------------------
                             Eyes Like Sky - Frank Ocean
-------------------------------------------------------------------------------
Tabbed by: Kris Bardin
E-mail: 315DevilDog@gmail.com

Tuning: Standard [EADGBe] 

This song is broken down into 3 basic chords, it is fairly easy to play.
There's no need to tab the individual strumming of the chords as it is fairly simple.
The strumming pattern contains up and down strokes with some muting involved 
during the first chord.
Underneath the chords tabbed out is the solo phrase that repeats itself throughout the song.
To play both the rhythmn and solo parts, you will need two guitars.


Those are the chords for the entire song. The order is:

Cadd9 - A7sus4 - D - Cadd9 - Repeat

*When switching from Cadd9 to A7sus4, try to put more emphasis on the D string of that chord, it
really makes it pop*



        
Cadd9

e|-3-------------------------------------------------------------------------|
B|-3-------------------------------------------------------------------------|
G|-0-------------------------------------------------------------------------|
D|-2-------------------------------------------------------------------------|
A|-3-------------------------------------------------------------------------|
E|-X-------------------------------------------------------------------------|

         
A7sus4 

e|-3-------------------------------------------------------------------------|
B|-3-------------------------------------------------------------------------|
G|-0-------------------------------------------------------------------------|
D|-2-------------------------------------------------------------------------|
A|-X-------------------------------------------------------------------------|
E|-0-------------------------------------------------------------------------|


D

e|-2-------------------------------------------------------------------------|
B|-3-------------------------------------------------------------------------|
G|-2-------------------------------------------------------------------------|
D|-0-------------------------------------------------------------------------|
A|-0-------------------------------------------------------------------------|
E|-X-------------------------------------------------------------------------|

Solo part       

e|-10-10-10-10-10-10-7-7-7-7-------------------------------------------------|
B|---------------------------------------------------------------------------|
G|---------------------------------------------------------------------------|
D|---------------------------------------------------------------------------|
A|---------------------------------------------------------------------------|
E|---------------------------------------------------------------------------|


Lyrics:

[Verse 1]

Hell yeah

A blind boy sees a green girl
She drives a green car through a dream world
She meets up with the green club
And talks of saving the earth from itself

A blind boy
Saw a blue man
Who rides a blue bus through a nightmare
And leaves work to a blue home
Where the blue seem different
Since she’s passed away

[Chorus]

And the same boy
With sunken eyes saw me
And described
Yellow so perfectly

Said he’s watching
Watching
Watching here
With eyes like sky
Eyes like I never seen

[Verse 2]

A blind boy
Became a kind man
Who painted white lights on a canvas
He once said he didn’t write songs
‘Cause making music would be selfish
And back then he saw the flags fly
Seen them fight and divide for it
He said war is for those who can see it
but what good is a border to me yeah

[Chorus]

And the same man
With sunken eyes saw me
And described
Yellow so perfectly
Said he’s watching
Watching
Watching
With eyes like sky
Eyes like I never seen

[Verse 3]

I said I wish you could see the ocean
He said I wish you could see hope
I said have you ever seen a mountain
He said no but my faith can move those

I said I wish you could see the stars
He told me I should see love (love)

Hell yeah

[Outro]

Said he’s watching
Watching
Watching
With eyes like sky
Eyes like I never seen
Suggest correction
What's this?
You can suggest a correction to this tab. Community and Mods will review your correction and vote to approve or reject it.
comments
print report bad tab
3 comments total.
0 reply
Kion Sutton 12 wrote on April 5 2013, 10:42 pm

If you just change the A7sus4 to a Em7 barre chord then hit the 10th fret on the tenth fret on the 1st string while you're are playing the Em7 then it will be perfect but awesome tab :D

0 reply
Kion Sutton 12 wrote on April 5 2013, 10:44 pm

lol i didn't mean to say tenth fret twice

0 reply
K3Boox 255 wrote on June 12 2013, 12:27 am

hey thanks for putting this up! i absolutely love frank ocean, and this song. just one thing- i think playing a C major chord, after the D sounds a lot better than playing D for two whole bars. just my opinion :-)

guest
You may want to rate the tab now too:
select rating
Please do not post tabs as comments. Select "correction" instead!