Oops, an error
Loading. Please wait.

Cancion Para Ti tab

version 8
version 8
65 views 1 this week
no commentswrite comment
1 2 3 4 5
1 last vote to show rating
add to favorites
×
Save as Personal and add changes to this tab that will be seen only by you. Learn more ›
×
You can save this tab as Personal to edit and correct it or add notes. All changes will be seen only by you. Learn more »
launch autoscroll
font size
0
reset
how to read this tab
guitar tuner
edit
Autoscroll
slow
fast
+/-
esc
set tempo
stop
Intro 1

E|----------------------------------------------------------------|
B|--------3-----3-----3-----3---------3-----3-----3-----3---------|
G|------2-----2-----2-----2---------4-----4-----4-----4-----------|
D|----4-----4-----4-----4---------5-----5-----5-----5-------------|
A|--0-----0-----0-----0---------0-----0-----0-----0---------------|
e|----------------------------------------------------------------|

E|--------------------------------------------------------------0-|
B|--------3-----3-----3-----3---------3-----3-----3-----3-----3---|
G|------2-----2-----2-----2---------4-----4-----4-----4-----4-----|
D|----4-----4-----4-----4---------5-----5-----5-----5-----5-------|
A|--0-----0-----0-----0---------0-----0-----0-----0-----0---------|
e|----------------------------------------------------------------|

E|----5--7--5--3--2--------2---------------------------------------|
B|----7--8--7--5--3--5--2----5--3----0--3--2--3--5-----------------|
G|-------------------7--3----6--4---0---4--2--4--6-----------------|
D|-----------------------------------------------------------------|
A|-----------------------------------------------------------------|
e|-----------------------------------------------------------------|

E|----5--7--5--3--2--------2---------------------------------------|
B|----7--8--7--5--3--5--2----5--3----0--3--2--3--5-----------------|
G|-------------------7--3----6--4---0---4--2--4--6-----------------|
D|-----------------------------------------------------------------|
A|-----------------------------------------------------------------|
e|-----------------------------------------------------------------|


G                  A
Cierra los ojos y con suavidad
              F#           Bm
Deja descansar tu cabeza hacia atrás,
              G
deja que el sueño
      A      Bm
sea dueño de ti

           G              A
Cuando la noche con lentitud
          F#             Bm
cuidadosamente apage la luz
              G
deja que el viento
      A         B
te traiga hasta Mi

      G            A
Y si en sueños pudiera volar
         F#        Bm
yo llegaría hasta ti
          G            A
para entonces hacerte escuchar

   Em           F#7
lo que nunca te pude decir

     G                 A
Y siento la aurora a veces tocar
          F#                Bm
cuidadosamente mi puerta al pasar
   G
y sin hablar
     A         B
me lleva hasta ti


   G                     A7
No encuentro palabras que puedan decir
      F#                   Bm
lo maravilloso que es poder sentir
   G
el calor de un hogar
       A        B
que refugias en ti

    G                A7
Y si en sueños pudiera volar....

 G                   A
Rie sin la alegría que te robé
 G                    A
vive con la tristeza que te entregué
  G                  A
llora con la nostalgia que te dejé
  G             A
guardame tu promesa
     G                 A
que tal vez un día estarás allí
      G                 A
que de vez en cuando pensarás en Mi


Intro 2


      G               A7
Si a tus sueños pudiera volar...


G                   A
Rie sin la alegría que te robé
 G                    A
vive con la tristeza que te entregué
  G                  A
llora con la nostalgia que te dejé
  G             A
guardame tu promesa
     G                 A
que tal vez un día estarás allí
      G                 A
que de vez en cuando pensarás en Mi

espero que les guste...esta muy buena

            
            
Suggest correction
Creating personal tab
Creating personal tab
You can edit any tab online and save it as your Personal.

You can edit, replace or remove any tab part or add personal notes – all changes will be seen only by you.

Personal tabs can be accessed anytime from any device, even offline.
Learn more »
Give kudos to tab author, rate the tab!
1 2 3 4 5
comments
print report bad tab
guest
Wanna post a correction for this tab? Suggest correction