Oops, an error
Loading. Please wait.

Ajena Bass Tab

334 views 1 this week
no commentswrite comment
1 2 3 4 5
please rate
add to favorites
launch autoscroll
font size
0
reset
guitar tuner
Tab Pro tools
  • play this tab
  • loop segment
  • change instrument
  • show fretboard
  • metronome
×
Best way to learn
"Ajena"
Autoscroll
slow
fast
+/-
esc
set tempo
stop
Contributor
-------------------------------------------------------------------------------
			     Ajena - Frank Reyes
-------------------------------------------------------------------------------

Tabbed By : Harry Moreno
e-mail: morenoh149@gmail.com

Tuning: Standard

I tried to find places where the tab repeats for readability,
but my attempts would mostly make it harder to read while playing.
Please note the timing, sometimes I slow down the timing to make space for double digit 
frets (10+) or faster notes.

|1 2 3 4 1 2 3 4 |1 2 3 4 1 2 3 4 |1 2 3 4 1 2 3 4 |1 2 3 4 1 2 3 4 |
|----------------|----------------|----------------|----------------|
|---55-----------|---33------55---|---55-----------|---33------55---|
|3-----3----66---|--------3-------|3-----3----66---|--------3-----3-|
|--------4-----4-|6-----6-------3-|--------4-----4-|6-----6---------|

|1 2 3 4 1 2 3 4 |1 2 3 4 1 2 3 4 |1 2 3 4 1 2 3 4 |
|----------------|----------------|----------------|
|--5---55--5---55|--5---55--5---55|--5---55--5---55|
|---5----3-------|3-------3-------|3-------3-------|
|3----------3----|---3-------3----|---3-------3----|

|1 2 3 4 1 2 3 4 |1 2 3 4 1 2 3 4 |1 2 3 4 1 2 3 4 |1 2 3 4 1 2 3 4 |
|----------------|----------------|----------------|----------------|
|--5--------55---|5-3--------55---|---55------55---|---33------55---|
|3--------3----3-|----6-5-3-------|3-------3-------|--------3-------|
|---3--357-------|--------------3-|------3-------3-|6-----6-------3-|

|1 2 3 4 1 2 3 4 |1 2 3 4 1 2 3 4 |1 2 3 4 1 2 3 4 |1 2 3 4 1 2 3 4 |
|----------------|----------------|----------------|----------------|
|---33-----------|3--3--3-6--63-6-|5--5----5--5--5-|3--3--3-----3---|
|-----------66---|----3-----------|----5-5-----5---|----3-----------|
|6-----6-4-----4-|----------------|----------------|--------6--6--6-|

|1 2 3 4 1 2 3 4 |1 2 3 4 1 2 3 4 |
|----------------|----------------|
|-----------55---|3--3--3-----3---|
|6--65--53-----3-|----3-----------|
|----------------|--------6--6--6-|

|1   2   3   4   |1   2   3   4   |1 2 3 4 |1 2 3 4 1 2 3 4 |
|----------------|--------9-101112|--12~---|---55-----------|
|----------------|----------------|----12~-|3-----3----33---|
|--------8---8---|10----10--------|--------|----------------|
|4-----4---------|----------------|--------|--------6-----6-|

|1 2 3 4 1 2 3 4 |1 2 3 4 1 2 3 4 |1 2 3 4 1 2 3 4 |1 2 3 4 |
|----------------|----------------|----------------|--------|
|-----------55---|3--3--3----3----|--------3--3665-|5-------|
|6--65--53-----3-|----3-----------|----6-----------|---55---|
|----------------|--------6-6---6-|4--4--4---------|--------|

|1   2   3   4   |1 2 3 4 1 2 3 4 |1 2 3 4 1 2 3 4 |1 2 3 4 |
|----------------|----------------|--5-------------|--------|
|565-353--3------|--5---55--5---6-|3--3---35~-----3|5~------|
|--------6-6-565-|3-------3------6|------7------57-|--------|
|----------------|---3-------3----|----------------|--------|

|1 2 3 4 1 2 3 4 |1 2 3 4 1 2 3 4 |1 2 3 4 1 2 3 4 |
|----------------|----------5-----|--7---77--------|
|--5---55--5---55|--5---6-3--3--34|5--5----5--5----|
|3-------3-------|3------6--------|------------5---|
|---3-------3----|---3------------|--------------3-|

|1 2 3 4 1 2 3 4 |1 2 3 4 1 2 3 4 |
|----------------|----------------|
|---55------55---|-----------33---|x2
|3-------3-----3-|---66-----------|
|------3---------|4-----4-6-----6-|

|1 2 3 4 1 2 3 4 |
|----------7-----|
|---55---5--5--55|
|3-----3---------|
|----------------|

|1 2 3 4 1 2 3 4 |1 2 3 4 1 2 3 4 |1 2 3 4 1 2 3 4 |
|----------------|----------------|----------------|
|--5---55--5---55|--5---55--5---55|--5---55--5---55|
|3-------3-------|3-------3-------|3-------3-------|
|---3-------3----|---3-------3----|---3-------3----|

|1 2 3 4 1 2 3 4 |1 2 3 4 1 2 3 4 |1 2 3 4 1 2 3 4 |
|----------------|----------------|----------------|
|----6-6-5--5----|----6-6-5--5----|----6-6-5--5----|
|3--3--------5---|3--3--------5---|3--3--------5---|
|--------------3-|--------------3-|--------------3-|

|1 2 3 4 1 2 3 4 |1 2 3 4 1 2 3 4 |1 2 3 4 1 2 3 4 |1 2 3 4 |
|----------------|----------------|----------------|--------|
|--5---55--5---55|--5---55--5---55|--5---55--5---55|--5---55|
|3-------3-------|3-------3-------|3-------3-------|3-------|
|---3-------3----|---3-------3----|---3-------3----|---3----|

|1 2 3 4 1 2 3 4 |1 2 3 4 1 2 3 4 |1 2 3 4 1 2 3 4 |
|----------------|----------------|----------------|
|--5--------55---|5-3--------55---|3--3-------33---|
|3--------3----3-|----6-5-3-------|----3---1-----1-|
|---3--357-------|--------------3-|------1---------|

|1 2 3 4 1 2 3 4 |1 2 3 4 1 2 3 4 |
|----------------|----------------|
|-----------55---|3--3--3-----3---|
|6--65--53-----3-|----3-----------|
|----------------|--------6--6--6-|

|1   2   3   4   |1   2   3   4   |1 2 3 4 |1 2 3 4 1 2 3 4 |
|----------------|--------9-101112|~-------|----------------|
|----------------|----------------|12~-----|3--3-------33---|
|--------8---8---|10----10--------|--------|----3---1-----1-|
|4-----4---------|----------------|--------|------1---------|

|1 2 3 4 1 2 3 4 |1 2 3 4 1 2 3 4 |1 2 3 4 1 2 3 4 |1 2 3 4 |
|----------------|----------------|----------------|--------|
|-----------55---|3--3--3----3----|--------3--3665-|5-------|
|6--65--53-----3-|----3-----------|----6-----------|---55---|
|----------------|--------6-6---6-|4--4--4---------|--------|

|1   2   3   4   |1 2 3 4 1 2 3 4 |1 2 3 4 1 2 3 4 |1 2 3 4 |
|----------------|----------------|--5-------------|--------|
|565-353--3------|--5---55--5---6-|3--3---35~-----3|5~------|
|--------6-6-565-|3-------3------6|------7------57-|--------|
|----------------|---3-------3----|----------------|--------|

|1 2 3 4 1 2 3 4 |1 2 3 4 1 2 3 4 |1 2 3 4 1 2 3 4 |
|----------------|----------5-----|----------------|
|--5---55--5---55|--5---6-3--3--34|5--5------------|
|3-------3-------|3------6--------|----5-5-----5---|
|---3-------3----|---3------------|--------3--3--3-|

outro
|1 2 3 4 1 2 3 4 |1 2 3 4 1 2 3 4 |1 2 3 4 1 2 3 4 |1 2 3 4 |
|----------------|----------------|----------------|--------|
|---55-----------|---55-----------|---55-----------|--------|
|3-----3----66---|3-----3----66---|3-----3---------|653-----|
|--------4-----4-|--------4-----4-|--------4~------|--------|
comments
We did not receive enough feedback on this tab! Please rate:
print report bad tab
1 2 3 4 5
I want to post or [tab]
guest
You may want to rate the tab now too:
select rating
Please do not post tabs as comments. Select "correction" instead!