Oops, an error
Loading. Please wait.

Fly Me To The Moon Bass Tab

version 1
version 1

Whole song

Interactive

48,235 views 192 this week
2 commentsread comments
1 2 3 4 5
x 25
add to favorites
launch autoscroll
font size
0
reset
guitar tuner
Autoscroll
slow
fast
+/-
esc
set tempo
stop
Help us to improve Ultimate-Guitar.com Take our survey!
×
Author
Difficulty
Fly Me To The Moon
Frank Sinatra
Standard Tuning

Listen to the song to get the tempo.
For the whole song. 
Just repeat it until the song ends

G|---------------|-------------|-------------|-------------|
D|---------------|--0----------|-----------0-|-------------|
A|--0--2--3--4---|-----3--2--0-|-----0--2----|--3--2-------|
E|---------------|-------------|--3----------|--------0--3-|

G|---------------|-------------|-------------|-------------|
D|---------------|-----------3-|--2----------|-------------|
A|--------0--1---|--2--3--5----|-----------2-|--0--2--3--4-|
E|--1--3---------|-------------|-----0--4----|-------------| 

G|---------------|--0----------|-----------0-|--2----------|
D|--0--2--3--4---|-----3--2--0-|-----0--2----|-----2-------|
A|---------------|-------------|--3----------|--------0--0-|
E|---------------|-------------|-------------|-------------|

G|---------------|-------------|-----------5-|--4----------|
D|--0--2--3--4---|--5--------0-|-----0--2----|-----3--2----|
A|---------------|--------2----|--3----------|-------------|
E|---------------|-----3-------|-------------|-----------4-|


[Outro]

   I      love...             you! 
G|-----------------------------------------------|
D|---7----9--------------------------------------|
A|-----------------6/7-6/7-6/7-3-----------------|
E|-5----7----------------------------------------|

************************************

| /  Slide up

************************************
Suggest correction
comments
print report bad tab
2 comments total.
+1 reply
metheds 10 Sep 04, 2013 12:15 PM

On the 4th measure, the open note should be played on the A string rather than the E string, otherwise it sounds great.

+3 reply
abuseart 10 May 31, 2015 01:56 PM, edited at 01:58 pm

Sounds good, thanks for posting that. I did a few improvements to get left hand a bit more flowing (more fifth frets instead of open strings) plus a little melody change in bar 4.


G|---------------|-------------|-------------|-------------|
D|---------------|-------------|-------------|-------------|
A|--0--2--3--4---|--5--3--2--0-|-----0--2--5-|--3----------|
E|---------------|-------------|--3----------|-----0--5--3-|

G|---------------|-------------|-------------|-------------|
D|---------------|-----------3-|--2----------|-------------|
A|--------0--1---|--2--3--5----|-----------2-|--0--2--3--4-|
E|--1--3---------|-------------|-----0--4----|-------------|

G|---------------|-------------|-------------|--2----------|
D|-----2--3--4---|--5--3--2--0-|-----0--2--5-|-----2-------|
A|--5------------|-------------|--3----------|--------0--0-|
E|---------------|-------------|-------------|-------------|

G|---------------|-------------|-----------5-|--4----------|
D|--0--2--3--4---|--5--------0-|-----0--2----|-----3--2----|
A|---------------|--------2----|--3----------|-------------|
E|---------------|-----3-------|-------------|-----------4-|

guest
You may want to rate the tab now too:
select rating
Wanna post a correction for this tab? Suggest correction