Oops, an error
Loading. Please wait.

Girl From Ipanema Tab

80,812 views 99 this week
1 commentread comment
1 2 3 4 5
excellent!
x 30
add to favorites
launch autoscroll
font size
0
reset
how to read this tab
guitar tuner
Autoscroll
slow
fast
+/-
esc
set tempo
stop
Help us to improve Ultimate-Guitar.com Take our survey!
×
Author
Difficulty
intermediate
The Girl from Ipanema

Arranged by Tony Crowley
Tuning: EADGBE  Time Signature: 4/4  Boss Nova rhythm

  |       |       |       |        |       |       |       |        
e|--------------------------------|--------------------------------|
B|--------3-----------3-------3---|----3-------3-------------------|
G|--------4-----------4-------4---|----4-------4-------------------|
D|--------4-----------4-------4---|----4-------4-------------------|
A|--------------------------------|--------------------------------|
E|3---------------3---------------|3---------------3-------0-------|

  |       |       |       |        |       |       |       |        
e|--------------------------------|--------------------------------|
B|--------5-----------5-------5---|----5-------5-----------5-------|
G|--------6-----------6-------6---|----6-------6-----------6-------|
D|--------5-----------5-------5---|----5-------5-----------5-------|
A|--------------------------------|--------------------------------|
E|5---------------5---------------|5---------------5---------------|

  |       |       |       |        |       |       |       |        
e|--------------------------------|--------------------------------|
B|--------5-----------5-------5---|--------4-----------4-------4---|
G|--------5-----------5-------5---|--------5-----------5-------5---|
D|--------5-----------5-------5---|--------4-----------4-------4---|
A|--------------------------------|--------------------------------|
E|5---------------5---------------|4---------------4---------------|

  |       |       |       |        |       |       |       |        
e|--------------------------------|--------------------------------|
B|--------3-----------3-------3---|----3-------3-------------------|
G|--------4-----------4-------4---|----4-------4-------------------|
D|--------4-----------4-------4---|----4-------4-------------------|
A|--------------------------------|--------------------------------|
E|3---------------3---------------|3---------------3---------------|

  |       |       |       |        |       |       |       |        
e|5-------2-------2-------0-------|5-------2-------2---2---0-------|
B|0-------0-------0-------0-------|0-------0-------0---0---0-------|
G|0-------0-------0-------0-------|0-------0-------0---0---0-------|
D|--------------------------------|--------------------------------|
A|5-------2-------2-------0-------|5-------5-------5---5---0-------|
E|--------------------------------|--------------------------------|

  |       |       |       |        |       |       |       |        
e|5-------2-------2-------0-------|5---5---2-------2---2---0-------|
B|5-------2-------2-------0-------|5---5---2-------2---2---0-------|
G|6-------0-------0-------0-------|6---6---0-------0---0---0-------|
D|--------------------------------|--------------------------------|
A|0-------0-------0-------0-------|0---0---0-------0---0---0-------|
E|--------------------------------|--------------------------------|

  |       |       |       |        |       |       |       |        
e|3-------0-------0---0-----------|2-------------------------------|
B|1-----------------------3-------|1-------3-------3---3---1-------|
G|0-------------------------------|1-------------------------------|
D|2-------------------------------|1-------------------------------|
A|--------------------------------|--------------------------------|
E|--------------------------------|--------------------------------|

  |       |       |       |        |       |       |       |        
e|--------------------------------|--------------------------------|
B|--------3-----------3-------3---|----3-------3-----------3-------|
G|--------4-----------4-------4---|----4-------4-----------4-------|
D|--------4-----------4-------4---|----4-------4-----------4-------|
A|--------------------------------|--------------------------------|
E|3---------------3---------------|3---------------3---------------|
 
  |       |       |       |        |       |       |       |        
e|5-------2-------2-------0-------|5-------2-------2---2---0-------|
B|0-------0-------0-------0-------|0-------0-------0---0---0-------|
G|0-------0-------0-------0-------|0-------0-------0---0---0-------|
D|--------------------------------|--------------------------------|
A|5-------2-------2-------0-------|5-------5-------5---5---0-------|
E|--------------------------------|--------------------------------|

  |       |       |       |        |       |       |       |        
e|5-------2-------2-------0-------|5---5---2-------2---2---0-------|
B|5-------2-------2-------0-------|5---5---2-------2---2---0-------|
G|6-------0-------0-------0-------|6---6---0-------0---0---0-------|
D|--------------------------------|--------------------------------|
A|0-------0-------0-------0-------|0---0---0-------0---0---0-------|
E|--------------------------------|--------------------------------|

  |       |       |       |        |       |       |       |        
e|3-------0-------0---0-----------|2-------------------------------|
B|1-----------------------3-------|1-------3-------3---3---1-------|
G|0-------------------------------|1-------------------------------|
D|2-------------------------------|1-------------------------------|
A|--------------------------------|--------------------------------|
E|--------------------------------|--------------------------------|

  |       |       |       |        |       |       |       |        
e|--------------------------------|--------------------------------|
B|--------3-----------3-------3---|----3-------3-----------3-------|
G|--------4-----------4-------4---|----4-------4-----------4-------|
D|--------4-----------4-------4---|----4-------4-----------4-------|
A|--------------------------------|--------------------------------|
E|3---------------3---------------|3---------------3---------------

 |       |       |       |        |       |       |       |        
e|------------------------1-------|3-------------------------------|
B|----------------4---------------|1-------------------------------|
G|--------5-----------------------|1-------------------------------|
D|----5---------------------------|1-------------------------------|
A|--------------------------------|--------------------------------|
E|4-------------------------------|--------------------------------|

  |       |       |       |        |       |       |       |        
e|--------4---3---1---3---1-------|----------------1---------------|
B|--------1---1---1-------1-------|4-------------------------------|
G|--------1---1---1-------1-------|4-------------------------------|
D|--------1---1---1-------1-------|3-------------------------------|
A|--------------------------------|4-------------------------------|
E|--------------------------------|--------------------------------|

  |       |       |       |        |       |       |       |        
e|----------------6---------------|6-------------------------------|
B|----------------6---------------|4-------------------------------|
G|--------4-------4---------------|4-------------------------------|
D|----3---------------------------|4-------------------------------|
A|4-------------------------------|--------------------------------|
E|--------------------------------|--------------------------------|

  |       |       |       |        |       |       |       |        
e|--------7---6---4---6---4-------|----------------4---------------|
B|----------------4-------4-------|7-------------------------------|
G|----------------4-------4-------|7-------------------------------|
D|----------------4-------4-------|6-------------------------------|
A|--------------------------------|7-------------------------------|
E|--------------------------------|--------------------------------|

  |       |       |       |        |       |       |       |        
e|----------------9---------------|7-------------------------------|
B|----------------9---------------|5-------------------------------|
G|--------7-------7---------------|5-------------------------------|
D|----6---------------------------|5-------------------------------|
A|7-------------------------------|--------------------------------|
E|--------------------------------|--------------------------------|

  |       |       |       |        |       |       |       |        
e|--------8---7---5---7---5-------|----------------5---------------|
B|----------------5-------5-------|8-------------------------------|
G|----------------5-------5-------|8-------------------------------|
D|----------------5-------5-------|7-------------------------------|
A|--------------------------------|8-------------------------------|
E|--------------------------------|--------------------------------|

  |       |       |       |        |       |       |       |        
e|----------------10------7---8---|10----------------------5-------|
B|----------------10--------------|7---------------7---8-----------|
G|--------8-------8---------------|7-------7---9-------------------|
D|----7---------------------------|7-------------------------------|
A|8-------------------------------|9-------------------------------|
E|--------------------------------|--------------------------------|

  |       |       |       |        |       |       |       |        
e|6-----------------------7-------|8-----------------------3-------|
B|7-------------------------------|5---------------5---7-----------|
G|7-------------------------------|5-------5---7-------------------|
D|6-------------------------------|5-------------------------------|
A|--------------------------------|7-------------------------------|
E|--------------------------------|--------------------------------|

  |       |       |       |        |       |       |       |        
e|4-------------------------------|--------------------------------|
B|5-------------------------------|--------3-----------3-------3---|
G|5-------------------------------|--------4-----------4-------4---|
D|4-------------------------------|--------4-----------4-------4---|
A|--------------------------------|--------------------------------|
E|--------------------------------|3---------------3---------------|

  |       |       |       |        |       |       |       |        
e|--------------------------------|--------------------------------|
B|----3-------3-------------------|--------5-----------5-------5---|
G|----4-------4-------------------|--------6-----------6-------6---|
D|----4-------4-------------------|--------5-----------5-------5---|
A|--------------------------------|--------------------------------|
E|3---------------3-------0-------|5---------------5---------------|

  |       |       |       |        |       |       |       |        
e|--------------------------------|--------------------------------|
B|----5-------5-----------5-------|--------5-----------5-------5---|
G|----6-------6-----------6-------|--------5-----------5-------5---|
D|----5-------5-----------5-------|--------5-----------5-------5---|
A|--------------------------------|--------------------------------|
E|5---------------5---------------|5---------------5---------------|

  |       |       |       |        |       |       |       |        
e|--------------------------------|--------------------------------|
B|--------4-----------4-------4---|--------3-----------3-------3---|
G|--------5-----------5-------5---|--------4-----------4-------4---|
D|--------4-----------4-------4---|--------4-----------4-------4---|
A|--------------------------------|--------------------------------|
E|4---------------4---------------|3---------------3---------------|

  |       |       |       |        
e|--------------------------------|
B|----------------3---------------|
G|----------------4---------------|
D|----------------4---------------|
A|--------------------------------|
E|3---------------3---------------|
Suggest correction
comments
print report bad tab
1 comment total.
0 reply
nickski1000 10 wrote on March 31 2016, 09:16 pm

I apologize but it clearly doesn't sound like the song.

guest
You may want to rate the tab now too:
select rating
Please do not post tabs as comments. Select "correction" instead!