Oops, an error
Loading. Please wait.

Have Yourself A Merry Little Christmas Chords

version 2
version 2

Whole song

172 views 102 this week
no commentswrite comment
1 2 3 4 5
2 more votes to show rating
add to favorites
launch autoscroll
font size
0
reset
transpose
0
reset
simplify chords
display chords
guitar tuner
Autoscroll
slow
fast
+/-
esc
set tempo
stop
Help us to improve Ultimate-Guitar.com Take our survey!
×
Author
Difficulty
intermediate
-------------------------------------------------------------------------------
                           Have yourself a merry little Christmas      Ralph Blane / Hugh Martin 
---------------------------------------------------------------- 1943 ---------------
Tabbed by: Mike Lydiat
E-mail: mike@docsworkshop.co.uk
Tuning:EADGBE

You can hear the chords here: https://soundcloud.com/toffee-music/11-have-yourself-a-merry


INTRO CHORD SHAPES                                                    
   Cmaj7 Am7   Dm7 G7  B7   Em   D7 
e|-0-----0-----1---1---2----0----2---|
B|-0-----1-----3---0---0----0----1---|
G|-0-----0-----2---0---2----0----2---|
D|-2-----2-----3---0---1----2----0---|
A|-3-----0-----0---2---2----2----0---|
E|-3-----x-----x---3---x----x----x---|

VERSE CHORD SHAPES                                                    
   Cmaj7 Am7 Dm7 G7 E7 A7 Am  Ammaj7 Am7  C7
e|-0-----0---1---1--0--0--0---0------0----0---|
B|-0-----1---3---0--0--2--1---1------1----1---|
G|-0-----0---2---0--1--0--2---1------0----3---|
D|-2-----2---3---0--0--2--2---2------2----2---|
A|-3-----0---0---2--2--0--0---0------0----3---|
E|-3-----x---x---3--0--x--x---x------x----x---|

CHORUS CHORD SHAPES                                
   Fmaj7 Em  Dm7 G7  Cmaj7 Am7 B7  G  Am7 
e|-0-----0---1---1---0-----0---2---3---0--|
B|-1-----0---3---0---0-----1---0---0---1--|
G|-2-----0---2---0---0-----0---2---0---0--|
D|-3-----2---0---0---2-----2---1---0---2--|
A|-3-----2---0---2---3-----0---2---2---0--|
E|-1-----0---x---3---3-----x---x---3---x--|

[INTRO]
                                                
Cmaj7     Am7       Dm7 G7  Cmaj7 
Christmas future is far a - way;                 
Dm7       G7      Dm7    G7
Christmas past is past   
Cmaj7     Am7        B7     Em
Christmas present is here today 
Am7          D7           G7 
    bringing joy that may last

[VERSE 1]
 
Cmaj7    Am7    Dm7          G7 
Have yourself a merry little Christmas,                                            
Cmaj7    Am7      Dm7     G7     
Let your heart be light            
Cmaj7    Am7     Dm7              G7 
From now on, our troubles will be out of 
E7     A7     Dm7     G7
sight

[VERSE 2]

Cmaj7    Am7    Dm7          G7 
Have yourself a merry little Christmas,  
Cmaj7    Am7       Dm7    G7
Make the Yule-tide gay, 
Cmaj7    Am7     Dm7              E7     Am  Ammaj7  Am7  C7
From now on, our troubles will be miles away.

[CHORUS]

Fmaj7             Em 
Here we are as in olden days,
      Dm7         G7     Cmaj7  
Happy golden days     of yore.                         
Am7      B7              Em 
Faithful friends who are dear to us           
       G          Am7      Dm7     G7
Gather near to us     once more.

[VERSE 3]

Cmaj7       Am7      Dm7           G7
Through the years we all will be together,                     
Cmaj7  Am7    Dm7   G7   
If the Fates allow                             
Cmaj7  Am7     Dm7           E7      Am     Ammaj7   Am7   D7
Hang a shining star upon the highest bough.  
    Fmaj7           Dm7          G7        C 
And have yourself a merry little Christmas now. 


                                                
Suggest correction
Give kudos to tab author, rate the tab!
1 2 3 4 5
comments
print report bad tab
guest
You may want to rate the tab now too:
select rating
Wanna post a correction for this tab? Suggest correction