Oops, an error
Loading. Please wait.

My Way Tab

version 3
version 3

Whole song

Interactive

3,512 views 15 this week
no commentswrite comment
1 2 3 4 5
please rate
add to favorites
launch autoscroll
font size
0
reset
how to read this tab
guitar tuner
Autoscroll
slow
fast
+/-
esc
set tempo
stop
Help us to improve Ultimate-Guitar.com Take our survey!
×
Author
Difficulty
intermediate
e|--0------------0-----0-----------0-----0-----------0--|
B|-----------------3-----------------3-------------3---3|
G|-----0---0---0---------0---0---0---------0---0--------|
D|-------2-----------------2-----------------2----------|
A|--3--------3---------2-------2---------1-------1------|
E|------------------------------------------------------|

e|-------------------1-----------1-0---1-----------1-0--|
B|-3---2-----------------3-----------------3------------|
G|---0---0-----0-2-----2---2---2---------2---2---2------|
D|-----------2-------0----------------------------------|
A|-0-------0-----------------0---------4-------0--------|
E|------------------------------------------------------|

e|-1---------3-------1---0---------2---3---------2-3-5--|
B|-----3-------3-3---------------1----------------------|
G|---2---2-0-----------0---0---0---------0---0----------|
D|---------------------------2-------------2------------|
A|-3-------2---------3-----------------3-------3--------|
E|------------------------------------------------------|


e|-3---------5---3-----------------0---3----------------|
B|-------------5-----6---------6-6---------6---------6--|
G|---0---0-----3-------5---5-------------5---5-----5----|
D|-----2-----------------3-----------------------3------|
A|-1-------3---------0-------0--------------------------|
E|-------------------------------------4-------4--------|

e|-0-----------1-0------------------------------------------|
B|-----------------3-----0-1-3--3---------------1-----------|
G|---0---0---0-------4---0--------2---------------0---0---0-|
D|-----2---------------3-3------3---0---------------2-------|
A|------------------------------------3-0-----0-3-------3---|
E|-3-------3-------3-----3----------------3-1---------------|


e|-------0-1-3---3-------5------3------------5-5---------3-5-3-|
B|-1---------------5---5---8-7---5---5---7-8-------3-----------|
G|---0---0-----------5-------------3-------------5---5---------|
D|-----2---------------------------------------3-------3-------|
A|-3-----3-------3--------------3------3-----------------------|
E|-------------------------------------------------------------|

e|-5---------5-7-8--8---------5-8-5--7---------7-8-10---|
B|-----3-5---6----------6--------------6---0------------|
G|---5-----5----------7---7--------------7--------------|
D|-3----------------0-------0--------5-------5----------|
A|---------0---------------------------------8----------|
E|------------------------------------------------------|


e|-10--------12---10--8-------------7-8--8---------5-8-5|
B|---8---8------12------10-10----------------6----------|
G|-----7--------0---------9------10--------7---7--------|
D|-2--------------------------10---------0-------0------|
A|--------------------0-------0-------------------------|
E|---------0--------------------------------------------|

e|-7---------7-8-10--10-----------------8---------------|
B|---6---0---------------10-------8-10----8---8---8-----|
G|-----7---0-----------10--10--10-----------9---10-9----|
D|-5--------------------------3----------------------12-|
A|-------------------8----------------------------------|
E|--------------------------------------8---------------|


e|-8----------------------------------------------------|
B|-8----------------------------------------------------|
G|-9----------------------------------------------------|
D|------------------------------------------------------|
A|------------------------------------------------------|
E|-8----------------------------------------------------|
Suggest correction
Give kudos to tab author, rate the tab!
1 2 3 4 5
comments
print report bad tab
guest
You may want to rate the tab now too:
select rating
Please do not post tabs as comments. Select "correction" instead!