Oops, an error
Loading. Please wait.
We have Chord Pro version of My Way.
It's the closest thing you can get to the original song and it has interactive parts. Check out the tab »
×
1,011 views 6 this week
no commentswrite comment
1 2 3 4 5
2 more votes to show rating
add to favorites
×
Save as Personal and add changes to this tab that will be seen only by you. Learn more ›
×
You can save this tab as Personal to edit and correct it or add notes. All changes will be seen only by you. Learn more »
launch autoscroll
font size
0
reset
how to read this tab
guitar tuner
backing track
0:00
0:00
edit
Autoscroll
slow
fast
+/-
esc
set tempo
stop
Author
Difficulty
MY WAY by Frank Sinatra

Tabs written and arranged by Edwin-E (in YouTube)
Blog: http://guitarplucking.blogspot.com
Facebook Page: http://facebook.com/EGuitar

Video Demo:  http://www.youtube.com/watch?v=ywNQ2l7rEAk


Intro:
E|--------------0--|
B|-----------2--2--|
G|--------0-----0--|
D|-----2--------2--|
A|--0-----------0--|
E|-----------------|
A7


Verse I.

E|-----2-----------2-----2--0--2-----------2--|
B|-----------3--------------------------2-----|
G|--2-----2-----2-----2-----------------------|
D|-----0-----------------------------4--------|
A|--------------------------------4-----------|
E|-----------------------------2--------------|
       D               Fm
   And now, the end is near,


E|--2--2--0--2-----------2--2--2--0-----------2--|
B|-----------1-----1-----------------5--4-----4--|
G|-----------2--2-----2--------------------2--2--|
D|-----------1--------------------------------4--|
A|-----------------------------------2-----------|
E|-----------------------------------------------|
            Cdim        B7
   And so I face, the final curtain.


E|--2--3-----------3--3--3--2--3-----------3--|
B|-----------------3-----------------------3--|
G|--------------4--4--------------------4--4--|
D|-----------5-----------------------5--------|
A|--------5-----------------------5-----------|
E|-----3-----------------------3--------------|
      G
   My friend, I'll say it clear,

E|----3--3--2--3-------------------5-----5--0--3--2--------2--|
B|---------------------------------5--5--------------3-----3--|
G|------------------------------6--6--------------------2--2--|
D|-------------------5-------------------------0--------------|
A|----------------5-------------------------------------------|
E|-------------3--------3--3/5--------------------------------|
                 G   A              D
   I'll state my case, of which I'm certain.


Verse II.

E|-----5-----------5--5--5--4--5-----------|
B|--3--------3-----------------2--2-----2--|
G|--------2-----2--------------2-----2--2--|
D|-----0-----------------------0-----------|
A|-----------------------------------------|
E|-----------------------------------------|
        D                    DM7
   I've lived, a life thats full,


E|--5/7--2--5--3-----------3--3--3--2--5--3--------3--|
B|-------------------------3-----------------3-----3--|
G|----------------------4--4--------------------4--4--|
D|-------------------5-----------------------------5--|
A|----------------5-----------------------------------|
E|-------------3-----------------------3--------------|
                  G               G
   I've traveled each, and every highway.


E|--5--2-----------2--2--3--2--0-----------0--|
B|-----------3-----3--------------------2--2--|
G|--------2-----2--2-----------------2-----2--|
D|-----0--------------------------2--------2--|
A|-----------------------------0--------------|
E|--------------------------------------------|
        D                    A
   But more, much more than this,


E|--------0--0---------3--------2-----0--|
B|--2--3---------------0--3--------3--2--|
G|---------------------------2--------0--|
D|-----------------0------0-----------2--|
A|--------------2---------------------0--|
E|-----------3---------------------------|
            G  D    A7
   I did it my way.

Verse III.

E|--5--2-----------2--5--2--0--2-----------2--|
B|-----------3--------------------------2-----|
G|--------2-----2-----------------------------|
D|-----0-----------------------------4--------|
A|--------------------------------4-----------|
E|-----------------------------2--------------|
       D               Fm
   Regrets, I've had a few,


E|--2--2--0--2-----------2--2--2--0-----------2--|
B|-----------1-----1-----------------5--4-----4--|
G|-----------2--2-----2--------------------2--2--|
D|-----------1--------------------------------4--|
A|-----------------------------------2-----------|
E|-----------------------------------------------|
            Cdim               B7
   But then again, too few to mention.


E|--2--3-----------3--3--3--2--3-----------3--|
B|-----------------3-----------------------3--|
G|--------------4--4--------------------4--4--|
D|-----------5-----------------------5--------|
A|--------5-----------------------5-----------|
E|-----3-----------------------3--------------|
     G
   I did, what I had to do,

E|----3--3--2--3-------------------5-----5--0--3--2--------2--|
B|---------------------------------5--5--------------3-----3--|
G|------------------------------6--6--------------------2--2--|
D|-------------------5-------------------------0--------------|
A|----------------5-------------------------------------------|
E|-------------3--------3--3/5--------------------------------|
                G     A          D
   And saw it through, without exemption.

Verse IV.

E|-----5-----------5--5--5--4--5-----------|
B|--3--------3-----------------2--2-----2--|
G|--------2-----2--------------2-----2--2--|
D|-----0-----------------------0-----------|
A|-----------------------------------------|
E|-----------------------------------------|
      D                        DM7
   I planned, each chartered course,


E|--5/7--2--5--3-----------3--3--3--2--5--3--------3--|
B|-------------------------3-----------------3-----3--|
G|----------------------4--4--------------------4--4--|
D|-------------------5-----------------------------5--|
A|----------------5-----------------------------------|
E|-------------3-----------------------3--------------|
                G               Gm
   Each careful step, along the byway.


E|--5--2-----------2--2--3--2--0-----------0--|
B|-----------3-----3--------------------2--2--|
G|--------2-----2--2-----------------2-----2--|
D|-----0--------------------------2--------2--|
A|-----------------------------0--------------|
E|--------------------------------------------|
       D                    A
   But more, much more than this,


E|--------0--0---------3--------2-----2--|
B|--2--3---------------0--3--------3--3--|
G|---------------------------2--------2--|
D|-----------------0------0-----------0--|
A|--------------2------------------------|
E|-----------3---------------------------|
            G  D
   I did it my way.


Verse V.

E|-------------------------2--------------------2--|
B|-------------------3--------------------3--------|
G|----------0--2--2-----2-----4--2--0--2-----2-----|
D|----4--4--------0--------------------0-----------|
A|-------------------------------------------------|
E|-------------------------------------------------|
    D                                   DM7
   Yes, there were times, I'm sure you knew,


E|-----------------------3--------------------------3--|
B|-----0--1--0--------0-----1--0-----0-----------3-----|
G|--2-----------------------------2--------------------|
D|-----------------0--------------------------0--------|
A|--------------2--------------------------2-----------|
E|-----------3-----------------------3--3--------------|
              G
   When I bit off, more than I could chew.


E|--------------------------------------------0--|
B|--0--2--3--3-----------3--3--0--2--------2-----|
G|--------------------0-----------------2--------|
D|-----------------2-----------------2-----------|
A|--------------2-----------------0--------------|
E|-----------0-----------------------------------|
                  Em                  A
   But through it all, when there was doubt,


E|--------0--0-----------0--0--2--0--------------2--|
B|--2--3-----------2-----2-----------3--------3--3--|
G|--------------2-----2--2-----------------4-----4--|
D|--------------------------------------4--------4--|
A|-----------------------------------2--------------|
E|-----------2--------------------------------------|
            Fm              Bm
   I ate it up, and spit it out.


E|----------------------------0-----------------0--|
B|----3--3-----3-----------3-----3--2--------2--2--|
G|----------4-----------0-----------------2-----2--|
D|-------------------2-----------------2--------2--|
A|----------------2-----------------0--------------|
E|-------------0-----------------------------------|
              Em               A
   I faced it all, and I stood tall,


E|-------0--0-----------3---------------2--|
B|--2--3--------------3-----3-----3-----3--|
G|-----------------------------2-----2--2--|
D|-----------------0--------0-----------0--|
A|--------------2--------------------------|
E|-----------3-----------------------------|
             G   D
   And did it my way

Suggest correction
Creating personal tab
Creating personal tab
You can edit any tab online and save it as your Personal.

You can edit, replace or remove any tab part or add personal notes – all changes will be seen only by you.

Personal tabs can be accessed anytime from any device, even offline.
Learn more »
Give kudos to tab author, rate the tab!
1 2 3 4 5
comments
print report bad tab
guest
You may want to rate the tab now too:
select rating
Wanna post a correction for this tab? Suggest correction