Oops, an error
Loading. Please wait.

Something Stupid Tab

version 2
version 2

Intro

Interactive

16,972 views 24 this week
no commentswrite comment
1 2 3 4 5
x 7
add to favorites
launch autoscroll
font size
0
reset
how to read this tab
guitar tuner
Autoscroll
slow
fast
+/-
esc
set tempo
stop
Help us to improve Ultimate-Guitar.com Take our survey!
×
Difficulty
novice
e|---------------------------------------------------------------|
B|------9-10-12-12-10-9h10----12-10-9h10-------------------------|
G|--9-9--------------------11------------11-9-8h9--------9-9-----|
D|------------------------------------------------9-9-11---------|
A|---------------------------------------------------------------|
E|---------------------------------------------------------------|

e|---------------------------------------------------------------|
B|------------9-12-10-9h10---------------------------------------|
G|-------9-11--------------9-------------------------------------|
D|--9-11---------------------9-7-6-------------------------------|
A|---------------------------------9-7---------------------------|
E|---------------------------------------------------------------|
Suggest correction
comments
print report bad tab
guest
You may want to rate the tab now too:
select rating
Wanna post a correction for this tab? Suggest correction