Oops, an error
Loading. Please wait.

Sway Tab

2,669 views 3 this week
1 commentread comment
1 2 3 4 5
1 last vote to show rating
add to favorites
launch autoscroll
font size
0
reset
how to read this tab
guitar tuner
Autoscroll
slow
fast
+/-
esc
set tempo
stop
Help us to improve Ultimate-Guitar.com Take our survey!
×
Author
Difficulty
novice
E5-5-5-5-5-5-6-5-3-6-5-3-3-3-3-5-3-1-1-1-1-1-1-1-1-1-1-1-3-1-0-3-1-0-0-0-0-1----|
B---------------------------------------------------------------------------4-2-|
G-------------------------------------------------------------------------------|
D-------------------------------------------------------------------------------|
A-------------------------------------------------------------------------------|
E-------------------------------------------------------------------------------|
Suggest correction
Give kudos to tab author, rate the tab!
1 2 3 4 5
comments
print report bad tab
1 comment total.
0 reply
caspmagician 10 Dec 30, 2011 06:02 AM

E5-5-5-5-5-5-6-5-3-6-5-3-3-3-3-5-3-1-1-1-1-1-1-1-1-1-1-1-3-1-0-3-1-0-0-0-0-1----|
B---------------------------------------------------------------------------5-3-|
G-------------------------------------------------------------------------------|
D-------------------------------------------------------------------------------|
A-------------------------------------------------------------------------------|
E-------------------------------------------------------------------------------|

guest
You may want to rate the tab now too:
select rating
Wanna post a correction for this tab? Suggest correction