Oops, an error
Loading. Please wait.

Heartless Bastard Motherfucker tab

version 1
version 1

Whole song

3,253 views 1 this week
no commentswrite comment
1 2 3 4 5
2 more votes to show rating
add to favorites
×
Save as Personal and add changes to this tab that will be seen only by you. Learn more ›
×
You can save this tab as Personal to edit and correct it or add notes. All changes will be seen only by you. Learn more »
launch autoscroll
font size
0
reset
how to read this tab
guitar tuner
edit
Autoscroll
slow
fast
+/-
esc
set tempo
stop
Heartless Bastard Motherfucker

e-------0---1-------4----|
b-1-----0---1-------4----|
g-0-----0---2-------5----|
d-2-x10-2---3--x5---6-x5-|
a-3-----2---3-------6----|
e-------0---1-------4----|

Well I lie I cheat and I steal,  And I don't give two shits
e------------------------------0--------1------------------|
b-------1----------------------0--------1------------------|
g-------0----------------------0--------2------------------|
d-------2-x10------------------2--------3--x5--------------|
a-------3----------------------2--------3------------------|
e------------------------------0--------1------------------|

about the way that you feel
e----------4-----------------|
b----------4-----------------|
g----------5-----------------|
d----------6-x5--------------|
a----------6-----------------|
e----------4-----------------|


And I barely know who you are,   But I'll break your heart
e------------------------------0----------1---------------|
b-------1----------------------0----------1---------------|
g-------0----------------------0----------2---------------|
d-------2-x10------------------2----------3--x5-----------|
a-------3----------------------2----------3---------------|
e------------------------------0----------1---------------|

 and then I'll sleep in your car
e---------------4----------------|
b---------------4----------------|
g---------------5----------------|
d---------------6-x5-------------|
a---------------6----------------|
e---------------4----------------|

I'm not dying inside, well, I'm dead.
e------------------------------------|
b-------1----------------------------|
g-------0----------------------------|
d-------2-x10------------------------|
a-------3----------------------------|
e------------------------------------|

   Yeah, too many people have fucked with my head
e-0------1--------------------4------------------|
b-0------1--------------------4------------------|
g-0------2--------------------5------------------|
d-2------3--x5----------------6-x5---------------|
a-2------3--------------------6------------------|
e-0------1--------------------4------------------|


prechorus                               chorus

And now I'm out for revenge. Well, I'm not the only one
e---3-------1--------------3-----------1---------------|
b---3-------1-------1------3-----------1---------------|
g---0-------2-------0------0-----------2---------------|
d---0-------3-------2------0-----------3---------------|
a---2-------3-------3------2-----------3---------------|
e---3-------1--------------3-----------1---------------|

 who regrets the way they act
e-----------------------------|
b--------1--------------------|
g--------0--------------------|
d--------2--------------------|
a--------3--------------------|
e-----------------------------|

But I seem to be the only one who's honest with the facts
e-----3--------------4--------------5----------------6---|
b-----3--------------4--------------5----------------6---|
g-----0--------------5--------------6----------------7---|
d-----0--------------6--------------7----------------8---|
a-----2--------------6--------------7----------------8---|
e-----3--------------4--------------5----------------6---|

And I'm sick to death of always being the sucker.
e--------1--------------------------------3------|
b--------1--------------------------------3------|
g--------2--------------------------------0------|
d--------3--------------------------------0------|
a--------3--------------------------------2------|
e--------1--------------------------------3------|

 I'm a heartless bastard motherfucker
e---------1---------------------------|
b---------1---------------------------|
g---------2---------------------------|
d---------3---------------------------|
a---------3---------------------------|
e---------1---------------------------|

Well, you're a prize specimen - You look pretty fine,
e------------------------------0-----1---------------|
b-------1----------------------0-----1---------------|
g-------0----------------------0-----2---------------|
d-------2-x10------------------2-----3--x5-----------|
a-------3----------------------2-----3---------------|
e------------------------------0-----1---------------|

 but I don't know where you've been
e-------------4---------------------|
b-------------4---------------------|
g-------------5---------------------|
d-------------6-x5------------------|
a-------------6---------------------|
e-------------4---------------------|

You invite me back to your place,  And you feed me drinks
e--------------------------------0---------1-------------|
b-------1------------------------0---------1-------------|
g-------0------------------------0---------2-------------|
d-------2-x10--------------------2---------3--x5---------|
a-------3------------------------2---------3-------------|
e--------------------------------0---------1-------------|

 to get me out of my face
e-----------4-------------|
b-----------4-------------|
g-----------5-------------|
d-----------6-x5----------|
a-----------6-------------|
e-----------4-------------|

You never own up to what you did   You fuck like an adult
e--------------------------------0-------1---------------|
b-----1--------------------------0-------1---------------|
g-----0--------------------------0-------2---------------|
d-----2-x10----------------------2-------3--x5-----------|
a-----3--------------------------2-------3---------------|
e--------------------------------0-------1---------------|

 and you cry like a kid
e---------4-------------|
b---------4-------------|
g---------5-------------|
d---------6-x5----------|
a---------6-------------|
e---------4-------------|

And then you tell your friends I took the piss
e------------3---------1-----------------------3-|
b------------3---------1------------------1----3-|
g------------0---------2------------------0----0-|
d------------0---------3------------------2----0-|  back to chorus
a------------2---------3------------------3----2-|
e------------3---------1-----------------------3-|

   Just for a second here with a straight face I am sick of the sinners,
e-------------0------------------1-------------------------------------1-|
b-1-----------0------------------1------------------1-----------3------1-|
g-2-----------0------------------2------------------0-----------0------2-|
d-2-----------2------------------3------------------2-----------0------3-|
a-0-----------2------------------3------------------3-----------2------3-|
e-------------0------------------1-------------------------------------1-|

Always making out they're saints
e--------------------------------|
b-----------------------------1--|
g-------3---------------------2--|
d-------3---------------------2--|
a-------1---------------------0--|
e--------------------------------|

As far as I can tell we're the ones to watch are the ones with
e---------0--------------------1-------------------------------|
b---------0--------------------1---------------------1---------|
g---------0--------------------2---------------------0---------|
d---------2--------------------3---------------------2---------|
a---------2--------------------3---------------------3---------|
e---------0--------------------1-------------------------------|

their hearts on their sleeves Make-up doth protest too much
e----------------------1--------------------------------3---|
b------3---------------1--------------------------------3---|
g------0---------------2--------------------------------0---|
d------0---------------3--------------------------------0---|
a------2---------------3--------------------------------2---|
e----------------------1--------------------------------3---|

So come on everybody, come on,  Don't make me regret ever
e--------------------------1-----------------------------|
b----1---------------------1---1-------------------------|
g----0----------3----------2---0---------------3---------|
d----2----------3----------3---2---------------3---------|
a----3----------1----------3---3---------------1---------|
e--------------------------1-----------------------------|

 writing this song - I need every motherfucker to sing along
e--1-------------------------3~-----------------------------|
b--1-------------------------3~-----------------------------|
g--2-------------------------0~-----------------------------|
d--3-------------------------0~-----------------------------|
a--3-------------------------2~-----------------------------|
e--1-------------------------3~-----------------------------|

back to chorus

            
            
Suggest correction
Creating personal tab
Creating personal tab
You can edit any tab online and save it as your Personal.

You can edit, replace or remove any tab part or add personal notes – all changes will be seen only by you.

Personal tabs can be accessed anytime from any device, even offline.
Learn more »
Give kudos to tab author, rate the tab!
1 2 3 4 5
comments
print report bad tab
guest
You may want to rate the tab now too:
select rating
Wanna post a correction for this tab? Suggest correction