Oops, an error
Loading. Please wait.

Losing Days Chords

22,601 views 72 this week
6 commentsread comments
1 2 3 4 5
excellent!
x 16
add to favorites
launch autoscroll
font size
0
reset
transpose
0
reset
simplify chords
display chords
guitar tuner
Autoscroll
slow
fast
+/-
esc
set tempo
stop
Help us to improve Ultimate-Guitar.com Take our survey!
×
Author
Difficulty
intermediate
Frank Turner - Losing Days

-KEY-

~    = ring out
(pm) = palm-mute

-CHORDS-

       EADGBe

A      x02220
A7     x02020
Aadd9  x4x200
Bm     x24432
C      332010
Cadd9  x32033
D      xx0232
Dadd9  x04320
Dsus2  xx0230
Em     022000
Em7    022033
G      320033
G6     3x0030

-RIFFS-

RIFF 1
e|---2--2--2-0-2---3--2--0--3---3--3--3-3--3--3---3--2--0--3---|
B|---3--3--3-3-3---3--3--3--3---3--3--3-3--3--3---3--3--3--3---|
G|---2--2--2-2-2---0--0--0--0---0--0--0-0--0--0---0--0--0--0---|
D|---0--0--0-0-0---0--0--0--0---2--2--2-2--0--2---0--0--0--0---|
A|------------------------------3--3--3-3--0--0----------------|
E|-----------------3--3--3--3---------------------3--3--3--3---|

RIFF 2
e|---0-2-2--2-0-2---3--2--0--3---3--3--3-3--3--3---3--2--0--3---|
B|---3-3-3--3-3-3---3--3--3--3---3--3--3-3--3--3---3--3--3--3---|
G|---2-2-2--2-2-2---0--0--0--0---0--0--0-0--0--0---0--0--0--0---|
D|---0-0-0--0-0-0---0--0--0--0---2--2--2-2--0--2---0--0--0--0---|
A|-------------------------------3--3--3-3--0--0----------------|
E|------------------3--3--3--3---------------------3--3--3--3---|

RIFF 3
e|---0-2-2--2-0-2---3--2--0--3---3--3--3-3--3--3---3--3--2--2---|
B|---3-3-3--3-3-3---3--3--3--3---3--3--3-3--3--3---3--3--3--3---|
G|---2-2-2--2-2-2---0--0--0--0---0--0--0-0--0--0---2--2--2--2---|
D|---0-0-0--0-0-0---0--0--0--0---2--2--2-2--2--2---0--0--0--0---|
A|-------------------------------3--3--3-3--3--3----------------|
E|------------------3--3--3--3----------------------------------|

RIFF 4

e|---2~------2-------------0~------0-------------3~---|
B|---3~----------3---3-----1~----------1---1-----3~---|
G|---2~---2--------2-------2~---2--------2-------0~---|
D|---0~--------------------2~--------------------0~---|
A|-------------------------0~--------------------2~---|
E|-----------------------------------------------3~---|



-INTRO-

Riff 1
Riff 2

-VERSE-

        Dsus2(pm)
Well my broken battered body
       G6(pm)
In the days when I was younger
        Dsus2(pm)
Used to fix itself quick sharp
      G6(pm)
After every slip and stumble

-PRE CHORUS-

          Dsus2               Aadd9                    Bm    Dadd9
But these days I'm collecting scars that don't seem to fade
G                Em7
Cuts and bruises that won't go away

Riff 2
Riff 2

-VERSE-
  Dsus2(pm)
I used to think that I
            G6(pm)
Would never live past twenty five
         Dsus2(pm)
When you think like that each day
     G6(pm)
Is a gift if you survive

-PRE CHORUS-
         Dsus2              Aadd9          Bm    Dadd9
But I survived too long for my side of the deal
         G                    Em7
But as I reach that shore I'm not sure how to feel

Riff 3

-CHORUS-

G                   D
Cause I keep losing days
                    Am
That used to take a lifetime
                      G    D
In the blinking of an eye

G                D
All these small ideas
                Am
Are suddenly commitments
                   G  D  C
Greatness slips on by
                   G  D  C
Greatness slips on by

Riff 2
Riff 2

-VERSE-

    Dsus2(pm)
I remember well the day
       G6(pm)
That I got my first tattoo
          Dsus2(pm)
I was so scared before and after
          G6(pm)
I was so proud when it was new

-PRE CHORUS-
          Dsus2              Aadd9       Bm    Dadd9
But these days I've gone and got me many more
G               Em7              G
Sometimes I get more when I get bored
        A7               D
One for every year I've lost

-OUTRO-

                    A
Cause I keep losing days
                    Em
That used to take a lifetime
                      D    A  D
In the blinking of an eye

                 A
All these small ideas
                Em
Are suddenly commitments
                   D  A  G
Greatness slips on by
                   D  A  G
Greatness slips on by
                   D  A  G
Greatness slips on by
                   Riff 4
Greatness slips on by
Suggest correction
What's this?
You can suggest a correction to this tab. Community and Mods will review your correction and vote to approve or reject it.
comments
print report bad tab
6 comments total. Showing first comments.
0 reply
Jamez1909 85 wrote on August 22 2013, 07:27 am

So are the riffs all together for the intro?

0 reply
Granty2k12 662 wrote on September 2 2013, 04:56 am

That's correct :)

0 reply
jasonhoese 132 wrote on October 18 2013, 10:37 am

This is a really good tab of this song. I don't know how you figured it out but kudos to you. The only thing I noticed is the riff before the first chorus actually ends on a D vice the G. They go back to D after the Cadd9 part. Other than that this is perfect! Thank you so much!

guest
You may want to rate the tab now too:
select rating
Please do not post tabs as comments. Select "correction" instead!