Oops, an error
Loading. Please wait.

Undeveloped Films Tab

3,022 views 3 this week
no commentswrite comment
1 2 3 4 5
excellent!
x 5
add to favorites
launch autoscroll
font size
0
reset
how to read this tab
guitar tuner
Tab Pro tools
  • play this tab
  • loop segment
  • change instrument
  • show fretboard
  • metronome
×
Best way to learn
"Undeveloped Films"
Autoscroll
slow
fast
+/-
esc
set tempo
stop
Contributor
Difficulty
intermediate
Frank Turner - Undeveloped Films

-INTRO-
e|------------------------------------------------------------------------------------------------------|
B|-----0-----0-----0-----0-----0-----0-----0-----0------0-----0-----0-----0-----0-----0-----0-----0-----|
G|-------0-----0-----0-----0-----0-----0-----0-----0------0-----0-----0-----0-----0-----0-----0-----0---|
D|---------0-----------0-----------0-----------0------------0-----------0-----------1-----------1-------|
A|---------------2-----------------------2------------------------2-----------3-----------3-------------|
E|---3-----------------------3------------------------3-------------------------------------------------|

e|------------------------------------------------------------------------------------------------------|
B|-----0-----0-----0-----0-----0-----0-----0-----0------0-----0-----0-----0-----0-----0-----0-----0-----|
G|-------0-----0-----0-----0-----0-----0-----0-----0------0-----0-----0-----0-----0-----0-----0-----0---|
D|---------0-----------0-----------0-----------0------------0-----------0-----------1-----------1-------|
A|---------------2-----------------------2------------------------2-----------3-----------3-------------|
E|---3-----------------------3------------------------3-------------------------------------------------|


-VERSE-

     Sorting through my things the other day I found an old film camera that I thought I'd thrown away
e|-----------------------------------------------------------------------------------------------------|
B|-----0-----0-----0-----0-----0-----0-----0-----0-----0-----0-----0-----0-----0-----0-----0-----0-----|
G|-------0-----0-----0-----0-----0-----0-----0-----0-----0-----0-----0-----0-----0-----0-----0-----0---|
D|---------0-----------0-----------0-----------0-----------0-----------0-----------1-----------1-------|
A|---------------2-----------------------2-----------------------2-----------3-----------3-------------|
E|---3-----------------------3-----------------------3-------------------------------------------------|

     But there it was covered in dust I checked it and the film inside still had a few pictures left
e|-----------------------------------------------------------------------------------------------------|
B|-----0-----0-----0-----0-----0-----0-----0-----0-----0-----0-----0-----0-----0-----0-----0-----0-----|
G|-------0-----0-----0-----0-----0-----0-----0-----0-----0-----0-----0-----0-----0-----0-----0-----0---|
D|---------0-----------0-----------0-----------0-----------0-----------0-----------1-----------1-------|
A|---------------2-----------------------2-----------------------2-----------3-----------3-------------|
E|---3-----------------------3-----------------------3-------------------------------------------------|

     So I just snapped it off and then I found a place on the high street that could still develop them
e|-----------------------------------------------------------------------------------------------------|
B|-----0-----0-----0-----0-----0-----0-----0-----0-----0-----0-----0-----0-----0-----0-----0-----0-----|
G|-------0-----0-----0-----0-----0-----0-----0-----0-----0-----0-----0-----0-----0-----0-----0-----0---|
D|---------0-----------0-----------0-----------0-----------0-----------0-----------1-----------1-------|
A|---------------2-----------------------2-----------------------2-----------3-----------3-------------|
E|---3-----------------------3-----------------------3-------------------------------------------------|

     I dropped them off and clean forgot it wasn't until this morning that I picked the pictures up
e|-----------------------------------------------------------------------------------------------------|
B|-----0-----0-----0-----0-----0-----0-----0-----0-----0-----0-----0-----0-----0-----0-----0-----0-----|
G|-------0-----0-----0-----0-----0-----0-----0-----0-----0-----0-----0-----0-----0-----0-----0-----0---|
D|---------0-----------0-----------0-----------0-----------0-----------0-----------1-----------1-------|
A|---------------2-----------------------2-----------------------2-----------3-----------3-------------|
E|---3-----------------------3-----------------------3-------------------------------------------------|


-CHORUS-

            And there      before  my   eyes     in
e|-----------------------------------------------------|
B|-----0-----0-----0-----0-----0-----0-----0-----0-----|
G|-------0-----0-----0-----0-----0-----0-----0-----0---|
D|---------7-----------7-----------7-----------7-------|
A|---7-----------7-----------7-----------7-------------|
E|---0-------------------------------------------------|

     Vi - - - - vid          co - - - - lour
e|-----------------------------------------------------|
B|-----0-----0-----0-----0-----0-----0-----0-----0-----|
G|-------0-----0-----0-----0-----0-----0-----0-----0---|
D|---------0-----------0-----------0-----------0-------|
A|---6-----------6-----------6-----------6-------------|
E|-----------------------------------------------------|

     Pic - - - - tures       o - - f    her
e|-----------------------------------------------------|
B|-----0-----0-----0-----0-----0-----0-----0-----0-----|
G|-------0-----0-----0-----0-----0-----0-----0-----0---|
D|---------7-----------7-----------7-----------7-------|
A|---------------9-----------------------9-------------|
E|---8-----------------------8-------------------------|

     Stood                   smi - - - - ling
e|-----------------------------------------------------|
B|-----0-----0-----0-----0-----0-----0-----0-----0-----|
G|-------0-----0-----0-----0-----0-----0-----0-----0---|
D|---------9-----------9-----------9-----------0-------|
A|---10----------10----------10----------9-------------|
E|-----------------------------------------------------|

    Bold on the edge  of a cliff by the sea     on the
e|-----------------------------------------------------|
B|-----0-----0-----0-----0-----0-----0-----0-----0-----|
G|-------0-----0-----0-----0-----0-----0-----0-----0---|
D|---------7-----------7-----------7-----------7-------|
A|---7-----------7-----------7-----------7-------------|
E|---0-------------------------------------------------|

     South       coast       some - - - where
e|-----------------------------------------------------|
B|-----0-----0-----0-----0-----0-----0-----0-----0-----|
G|-------0-----0-----0-----0-----0-----0-----0-----0---|
D|---------0-----------0-----------0-----------0-------|
A|---6-----------6-----------6-----------6-------------|
E|-----------------------------------------------------|

     Wind        in          her         hair 
e|-----------------------------------------------------|
B|-----0-----0-----0-----0-----0-----0-----0-----0-----|
G|-------0-----0-----0-----0-----0-----0-----0-----0---|
D|---------7-----------7-----------7-----------7-------|
A|---------------9-----------------------9-------------|
E|---8-----------------------8-------------------------|

     Wrapped                against     the
e|-----------------------------------------------------|
B|-----0-----0-----0-----0-----0-----0-----0-----0-----|
G|-------0-----0-----0-----0-----0-----0-----0-----0---|
D|---------9-----------9-----------9-----------0-------|
A|---10----------10----------10----------9-------------|
E|-----------------------------------------------------|

     Cold
e|-------------------------------------------------------------------------------|
B|-----0-----0-----0-----0-----0-----0-----0-----------0-----0-----0-----0-------|
G|-------0-----0-----0-----0-----0-----0-----0-----------0-----0-----0-----0-----|
D|---------4-----------4-----------4-----------------------0---------------------|
A|---3-----------3-----------3-----------3-----3-2-0-------------2-----0---------|
E|---------------------------------------------------3-----------------------3---|


-VERSE-

     There were many other pictures in the set most of them were taken in the first months after we met
e|-----------------------------------------------------------------------------------------------------|
B|-----0-----0-----0-----0-----0-----0-----0-----0-----0-----0-----0-----0-----0-----0-----0-----0-----|
G|-------0-----0-----0-----0-----0-----0-----0-----0-----0-----0-----0-----0-----0-----0-----0-----0---|
D|---------0-----------0-----------0-----------0-----------0-----------0-----------1-----------1-------|
A|---------------2-----------------------2-----------------------2-----------3-----------3-------------|
E|---3-----------------------3-----------------------3-------------------------------------------------|

     When we were lovers like happy drunks stumbling for each other, with each 
step, each breath in our lungs
e|-----------------------------------------------------------------------------------------------------|
B|-----0-----0-----0-----0-----0-----0-----0-----0-----0-----0-----0-----0-----0-----0-----0-----0-----|
G|-------0-----0-----0-----0-----0-----0-----0-----0-----0-----0-----0-----0-----0-----0-----0-----0---|
D|---------0-----------0-----------0-----------0-----------0-----------0-----------1-----------1-------|
A|---------------2-----------------------2-----------------------2-----------3-----------3-------------|
E|---3-----------------------3-----------------------3-------------------------------------------------|

     Pictures of nights from Soho bars a weekend in the country when she borrowed my sister's car
e|-----------------------------------------------------------------------------------------------------|
B|-----0-----0-----0-----0-----0-----0-----0-----0-----0-----0-----0-----0-----0-----0-----0-----0-----|
G|-------0-----0-----0-----0-----0-----0-----0-----0-----0-----0-----0-----0-----0-----0-----0-----0---|
D|---------0-----------0-----------0-----------0-----------0-----------0-----------1-----------1-------|
A|---------------2-----------------------2-----------------------2-----------3-----------3-------------|
E|---3-----------------------3-----------------------3-------------------------------------------------|

     Her naked, serene on a hotel bed smiling at the camera, her beauty like a word unsaid
e|-----------------------------------------------------------------------------------------------------|
B|-----0-----0-----0-----0-----0-----0-----0-----0-----0-----0-----0-----0-----0-----0-----0-----0-----|
G|-------0-----0-----0-----0-----0-----0-----0-----0-----0-----0-----0-----0-----0-----0-----0-----0---|
D|---------0-----------0-----------0-----------0-----------0-----------0-----------1-----------1-------|
A|---------------2-----------------------2-----------------------2-----------3-----------3-------------|
E|---3-----------------------3-----------------------3-------------------------------------------------|


-CHORUS-

            And there      before  my   eyes     on the
e|-----------------------------------------------------|
B|-----0-----0-----0-----0-----0-----0-----0-----0-----|
G|-------0-----0-----0-----0-----0-----0-----0-----0---|
D|---------7-----------7-----------7-----------7-------|
A|---7-----------7-----------7-----------7-------------|
E|---0-------------------------------------------------|

     Glo - - - - ssy         pa - - - - per
e|-----------------------------------------------------|
B|-----0-----0-----0-----0-----0-----0-----0-----0-----|
G|-------0-----0-----0-----0-----0-----0-----0-----0---|
D|---------0-----------0-----------0-----------0-------|
A|---6-----------6-----------6-----------6-------------|
E|-----------------------------------------------------|

     Qui - - - - et          whi - - - - spers
e|-----------------------------------------------------|
B|-----0-----0-----0-----0-----0-----0-----0-----0-----|
G|-------0-----0-----0-----0-----0-----0-----0-----0---|
D|---------7-----------7-----------7-----------7-------|
A|---------------9-----------------------9-------------|
E|---8-----------------------8-------------------------|

     Of                      some - - - thing
e|-----------------------------------------------------|
B|-----0-----0-----0-----0-----0-----0-----0-----0-----|
G|-------0-----0-----0-----0-----0-----0-----0-----0---|
D|---------9-----------9-----------9-----------0-------|
A|---10----------10----------10----------9-------------|
E|-----------------------------------------------------|

     I       had lost     or put        aside   for the
e|-----------------------------------------------------|
B|-----0-----0-----0-----0-----0-----0-----0-----0-----|
G|-------0-----0-----0-----0-----0-----0-----0-----0---|
D|---------7-----------7-----------7-----------7-------|
A|---7-----------7-----------7-----------7-------------|
E|---0-------------------------------------------------|

     Lon - - - - gest        time        the
e|-----------------------------------------------------|
B|-----0-----0-----0-----0-----0-----0-----0-----0-----|
G|-------0-----0-----0-----0-----0-----0-----0-----0---|
D|---------0-----------0-----------0-----------0-------|
A|---6-----------6-----------6-----------6-------------|
E|-----------------------------------------------------|

     Hope        that        I           might 
e|-----------------------------------------------------|
B|-----0-----0-----0-----0-----0-----0-----0-----0-----|
G|-------0-----0-----0-----0-----0-----0-----0-----0---|
D|---------7-----------7-----------7-----------7-------|
A|---------------9-----------------------9-------------|
E|---8-----------------------8-------------------------|

     Find              some  kind        of
e|-----------------------------------------------------|
B|-----0-----0-----0-----0-----0-----0-----0-----0-----|
G|-------0-----0-----0-----0-----0-----0-----0-----0---|
D|---------9-----------9-----------9-----------0-------|
A|---10----------10----------10----------9-------------|
E|-----------------------------------------------------|

     Peace
e|-------------------------------------------|
B|-----0-----0-----0-----0-----0-----0-------|
G|-------0-----0-----0-----0-----0-----0-----|
D|---------4-----------4-----------4---------|
A|---3-----------3-----------3-----------3---|
E|-------------------------------------------|


-BRIDGE-

     Oh     oh     oh     where did they
e|------0------0------0------0-----|
B|--------0------0------0------0---|
G|---4------4------4------4--2-0---|
D|---------------------------------|
A|---------------------------------|
E|---------------------------------|

     Go     go     go     I used to
e|------0------0------0------0-----|
B|--------0------0------0------0---|
G|---2------2------2------2--0-----|
D|-----------------------------4---|
A|---------------------------------|
E|---------------------------------|

     Know   ex - - act - -ly
e|------0------0------0------0-----|
B|--------0------0------0------0---|
G|---0------0------0------0--------|
D|---------------------------4-2---|
A|---------------------------------|
E|---------------------------------|

     Where  I      kept   it
e|------0------0------0------0-----|
B|--------0------0------0------0---|
G|---------------------------------|
D|---4------4------1---------------|
A|------------------------3--------|
E|---------------------------------|

     There  right  there  under the
e|------0------0------0------0-----|
B|--------0------0------0------0---|
G|----------4------4------4--2-0---|
D|---------------------------------|
A|---------------------------------|
E|---0-----------------------------|

     Stairs oh     please darling I
e|------0------0------0------0-----|
B|--------0------0------0------0---|
G|---2------2------2------2--0-----|
D|-----------------------------4---|
A|---------------------------------|
E|---------------------------------|

     Swear  swear  swear  that's
e|------0------0------0------0-----|
B|--------0------0------0------0---|
G|---0------0------0------0--------|
D|---------------------------4-2---|
A|---------------------------------|
E|---------------------------------|

     Where  I      left   it
e|------0------0------0------0-----|
B|--------0------0------0------0---|
G|---------------------------------|
D|---4------4------1---------------|
A|------------------------3--------|
E|---------------------------------|

   Secret   little things that you
e|------0------0------0------0-----|
B|--------0------0------0------0---|
G|----------4------4------5--------|
D|---------------------------------|
A|---------------------------------|
E|---0-----------------------------|

      Keep  locked away   in a
e|------0------0------0------0-----|
B|--------0------0------0------0---|
G|----2-----2------2------4--------|
D|---------------------------------|
A|---------------------------------|
E|---------------------------------|

      Small wooden box    that you
e|------0------0------0------0-----|
B|--------0------0------0------0---|
G|----0-----0------0------2--------|
D|---------------------------------|
A|---------------------------------|
E|---------------------------------|

     Barely even   mention to your
e|------0------0------0------0-----|
B|--------0------0------0------0---|
G|---------------------------------|
D|---4------4------1---------------|
A|------------------------3--------|
E|---------------------------------|

     Self     it's not    exactly
e|------0------0------0------0-----|
B|--------0------0------0------0---|
G|----------4------4------5--------|
D|---------------------------------|
A|---------------------------------|
E|---0-----------------------------|

      Hope  nothing quite as simple as
e|------0------0------0------0-----|
B|--------0------0------0------0---|
G|----2-----2------2------4--------|
D|---------------------------------|
A|---------------------------------|
E|---------------------------------|

      Youth perhaps it's just a way of
e|------0------0------0------0-----|
B|--------0------0------0------0---|
G|----0-----0------0------2--------|
D|---------------------------------|
A|---------------------------------|
E|---------------------------------|

     Look - ing    past   the 
e|------0------0------0------0-----|
B|--------0------0------0------0---|
G|---------------------------------|
D|---4------4------1---------------|
A|------------------------2--------|
E|---------------------------------|

     Truth     we're all fading away
e|-------------------------------------------------------------|
B|------0------0------0------0------0------0------0------0-----|
G|--------0------0------0------0------0------0------0------0---|
D|----------2-------------2-------------4-------------4--------|
A|---3-------------3-------------5-------------5---------------|
E|-------------------------------------------------------------|

   A truth  in the very of that  long lost     roll of
e|-------------------------------------------------------------|
B|------0------0------0------0------0------0------0------0-----|
G|--------0------0------0------0------0------0------0------0---|
D|----------4-------------4-------------7-------------7--------|
A|---6-------------6-------------7-------------7---------------|
E|-------------------------------------------------------------|

     Film               a picture of me
e|-------------------------------------------------------------|
B|------0------0------0------0------0------0------0------0-----|
G|--------0------0------0------0------0------0------0------0---|
D|----------2-------------2-------------4-------------4--------|
A|---3-------------3-------------5-------------5---------------|
E|-------------------------------------------------------------|

   A young man holding a camera up to a mirror
e|-----------------------------------|
B|------0------0------0------0-------|
G|--------0------0------0------0-----|
D|----------4-------------4----------|
A|---6-------------6-------------6---|
E|-----------------------------------|


-OUTRO-

            And there      before  my   eyes    in that
e|-----------------------------------------------------|
B|-----0-----0-----0-----0-----0-----0-----0-----0-----|
G|-------0-----0-----0-----0-----0-----0-----0-----0---|
D|---------7-----------7-----------7-----------7-------|
A|---7-----------7-----------7-----------7-------------|
E|---0-------------------------------------------------|

     Old         re - - - - flec - - - - tion    a
e|-----------------------------------------------------|
B|-----0-----0-----0-----0-----0-----0-----0-----0-----|
G|-------0-----0-----0-----0-----0-----0-----0-----0---|
D|---------0-----------0-----------0-----------0-------|
A|---6-----------6-----------6-----------6-------------|
E|-----------------------------------------------------|

     De - - - - cla - - - - ra - - - - - tion
e|-----------------------------------------------------|
B|-----0-----0-----0-----0-----0-----0-----0-----0-----|
G|-------0-----0-----0-----0-----0-----0-----0-----0---|
D|---------7-----------7-----------7-----------7-------|
A|---------------9-----------------------9-------------|
E|---8-----------------------8-------------------------|

     Bold              we    won't       stay
e|-----------------------------------------------------|
B|-----0-----0-----0-----0-----0-----0-----0-----0-----|
G|-------0-----0-----0-----0-----0-----0-----0-----0---|
D|---------9-----------9-----------9-----------0-------|
A|---10----------10----------10----------9-------------|
E|-----------------------------------------------------|

    Gold all-that's-left  of her and-the-rest    is a
e|-----------------------------------------------------|
B|-----0-----0-----0-----0-----0-----0-----0-----0-----|
G|-------0-----0-----0-----0-----0-----0-----0-----0---|
D|---------7-----------7-----------7-----------7-------|
A|---7-----------7-----------7-----------7-------------|
E|---0-------------------------------------------------|

     Small       locked      box         of
e|-----------------------------------------------------|
B|-----0-----0-----0-----0-----0-----0-----0-----0-----|
G|-------0-----0-----0-----0-----0-----0-----0-----0---|
D|---------0-----------0-----------0-----------0-------|
A|---6-----------6-----------6-----------6-------------|
E|-----------------------------------------------------|

     Un - - - - de - - - - - ve - - - - loped
e|-----------------------------------------------------|
B|-----0-----0-----0-----0-----0-----0-----0-----0-----|
G|-------0-----0-----0-----0-----0-----0-----0-----0---|
D|---------7-----------7-----------7-----------7-------|
A|---------------9-----------------------9-------------|
E|---8-----------------------8-------------------------|

     Films               and pho - - - - to
e|-----------------------------------------------------|
B|-----0-----0-----0-----0-----0-----0-----0-----0-----|
G|-------0-----0-----0-----0-----0-----0-----0-----0---|
D|---------9-----------9-----------9-----------0-------|
A|---10----------10----------10----------9-------------|
E|-----------------------------------------------------|

     Graphs
e|-------------------------------------------------------------------------------|
B|-----0-----0-----0-----0-----0-----0-----0-----------0-----0-----0-----0-------|
G|-------0-----0-----0-----0-----0-----0-----0-----------0-----0-----0-----0-----|
D|---------4-----------4-----------4-----------------------0---------------------|
A|---3-----------3-----------3-----------3-----3-2-0-------------2-----0---------|
E|---------------------------------------------------3-----------------------3---|
comments
print report bad tab
I want to post or [tab]
guest
You may want to rate the tab now too:
select rating
Please do not post tabs as comments. Select "correction" instead!