Oops, an error
Loading. Please wait.

Wanderlust bass

686 views 1 this week
no commentswrite comment
1 2 3 4 5
3 more votes to show rating
add to favorites
×
Save as Personal and add changes to this tab that will be seen only by you. Learn more ›
×
You can save this tab as Personal to edit and correct it or add notes. All changes will be seen only by you. Learn more »
launch autoscroll
font size
0
reset
guitar tuner
edit
Autoscroll
slow
fast
+/-
esc
set tempo
stop
Tabbed By : Seanie.

Tuning: Standard

I tried to tab it out in a way that shows the timing a little bit but it's difficult so 
listen to the song for the timing. After writing it out I tried to play along reading 
from this tab and I think it's as easy to follow as I can make it.

The intro is Bm  and  D, Come in on the D

G|-------------------------|
D|-------------------------|
A|----5----5----5----5-----|
E|-------------------------|

First Verse:

G|-----------------------------------------------------------------------------|
D|-----------------------------------------------------------------------------|
A|-2--2--2--2-0-----5--5--5--5-4-----2--2--2--2-0-----5--5--5--5-0-------------|
E|-----------------------------------------------------------------------------|

G|-----------------------------------------------------------------------------|
D|-----------------------------------------------------------------------------|
A|-------------9/5--5--5--5-4----2--2--2--2-0-----5--5--5--5 ------------------|
E|-7--7--7--7------------------------------------------------------------------|


Chorus:

G|-----------------------------------------------------------------------------|
D|-----------------------------------------------------------------------------|
A|--7----------7--------5--7--4--5--2-------7-------7--------------------------|
E|------7---5--------------------------------------5-----3--3--3--3------------|


Verse 2:

G|-----------------------------------------------------------------------------|
D|-----------------------------------------------------------------------------|
A|-2--------2--0--2--0--2--4-----5--0--5--7--5--0--5--4------------------------|
E|----0--2---------------------------------------------------------------------|

X4   On the last D, going into the chorus, you don't play the C#  (4)


Chorus 2:

G|-----------------------------------------------------------------------------|
D|-----------------------------------------------------------------------------|
A|--7----------7--------5--7--4--5--2--0--2--0---------------------------------|
E|------7---5------------------------------------------------------------------|

G|-----------------------------------------------------------------------------|
D|------------9----------------------------------------------------------------|
A|---7-----7-------------0--5--12------10----10--------------------------------|
E|------7----------------------------------------------------------------------|


Break:
 Not too sure about the link into the last Verse (5 - 7) But it think it's right
G|-----------------------------------------------------------------------------|
D|-----------------------------------------------------------------------------|
A|--2----5-------2----5------2----5-------2----5--5---7------------------------|
E|-----------------------------------------------------------------------------|

Last verse is the verse 2 bassline again.

G|---------------------------------------------------------------------------|
D|---------------------------------------------------------------------------|
A|--2----------0-------------------------------------------------------------|
E|---------------------------------------------------------------------------|
    Darling, I'm leaving.


Running Order:

Intro
Verse 1
Chorus 1
Verse 2
Chorus 2
Break
Verse 2
End


| /  slide up
| \  slide down
| h  hammer-on
| p  pull-off
| ~  vibrato
| +  harmonic
| x  Mute note

            
            
Suggest correction
Creating personal tab
Creating personal tab
You can edit any tab online and save it as your Personal.

You can edit, replace or remove any tab part or add personal notes – all changes will be seen only by you.

Personal tabs can be accessed anytime from any device, even offline.
Learn more »
Give kudos to tab author, rate the tab!
1 2 3 4 5
comments
print report bad tab
guest
You may want to rate the tab now too:
select rating
Wanna post a correction for this tab? Suggest correction