Oops, an error
Loading. Please wait.

Brown Shoes Dont Make It bass

version 1
version 1

Whole song

Interactive

605 views 1 this week
no commentswrite comment
1 2 3 4 5
3 more votes to show rating
add to favorites
×
Save as Personal and add changes to this tab that will be seen only by you. Learn more ›
×
You can save this tab as Personal to edit and correct it or add notes. All changes will be seen only by you. Learn more »
launch autoscroll
font size
0
reset
guitar tuner
edit
Autoscroll
slow
fast
+/-
esc
set tempo
stop
Band/Artist: Frank Zappa
Song: Brown Shoes Don't Make It



              |--3-|  |--3-|     |--3-|  |--3-|  |--3-|  |--3-|   
     H        Q    E  Q    E     Q    E  Q    E  Q    E  Q    E   
G||---------------------------|----------------------------------|
D||---------------------------|----------------------------------|
A||---------------------------|--4-------0-----------------------|
E||----------------2--0----2--|-------2-------2--L----2--0----2--|


  |--3-|  |--3-|  |--3-|  |--3-|     |--3-|  |--3-|  |--3-|  |--3-|   
  Q    E  Q    E  Q    E  Q    E     Q    E  Q    E  Q    E  Q    E   
----------------------------------|----------------------------------|
----------------------------------|----------------------------------|
--4-------0-----------------------|--4-------0-----------------------|
-------2-------2--L----2--0----2--|-------2-------2--L----2--0----2--|


  |--3-|  |--3-|  |--3-|  |--3-|     |--3-|  |--3-|  |--3-|  |--3-|   
  Q    E  Q    E  Q    E  Q    E     Q    E  Q    E  Q    E  Q    E   
----------------------------------|----------------------------------|
----------------------------------|----------------------------------|
--4-------0-----------------------|--4-------0-----------------------|
-------2-------2--L----2--0----2--|-------2-------2--L----2--0----2--|


  |--3-|  |--3-|  |--3-|  |--3-|     |--3-|  |--3-|  |--3-|  |--3-|   
  Q    E  Q    E  Q    E  Q    E     Q    E  Q    E  Q    E  Q    E   
----------------------------------|----------------------------------|
----------------------------------|----------------------------------|
--4-------0-----------------------|--4-------0-----------------------|
-------2-------2--L----2--0----2--|-------2-------2--L----2--0----2--|


  |--3-|  |--3-|  |--3-|  |--3-|     |--3-|  |--3-|  |--3-|  |--3-|   
  Q    E  Q    E  Q    E  Q    E     Q    E  Q    E  Q    E  Q    E   
----------------------------------|----------------------------------|
----------------------------------|----------------------------------|
--4-------0-----------------------|--4-------0-----------------------|
-------2-------2--L----2--0----2--|-------2-------2--L----2--0----2--|


  |--3-|  |--3-|  |--3-|  |--3-|     |--3-|  |--3-|  |--3-|  |--3-|   
  Q    E  Q    E  Q    E  Q    E     Q    E  Q    E  Q    E  Q    E   
----------------------------------|----------------------------------|
----------------------------------|----------------------------------|
--4-------0-----------------------|--4-------0-----------------------|
-------2-------2--L----2--0----2--|-------2-------2--L----2--0----2--|


  E  E  H.              W                   W                 
---------------------|-------------------|-------------------|
---------------------|-------------------|-------------------|
---------------------|--3----------------|--4----------------|
--2--2---------------|-------------------|-------------------|


  W                   W                   W                   W                 
-------------------|-------------------|-------------------|-------------------|
-------------------|-------------------|-------------------|-------------------|
--3----------------|--1----------------|--0----------------|--0----------------|
-------------------|-------------------|-------------------|-------------------|


  Q    Q    Q    Q       Q    Q    Q    Q       Q    Q    Q    Q     
----------------------|----------------------|--9----6---------6----|
----------------------|--4----6----7----9----|------------9---------|
--2----4----5----7----|----------------------|----------------------|
----------------------|----------------------|----------------------|


  W                   E  E  E  E  E  E  Q       E  E  E  E  E  E  Q     
-------------------|-------------------------|-------------------------|
--4----------------|--5--3--5--3--5--3--L----|-------------------------|
-------------------|-------------------------|--7--5--7--5--7--5--L----|
-------------------|-------------------------|-------------------------|


                                       |--3--|  |--3-|   
  E  E  E  E  Q    Q       E  E  E  E  E  E  E  Q    E   
------------------------|-------------------------------|
-----------5--L----7----|-------------------------------|
--5--7--8---------------|--8-----------8----------------|
------------------------|--------8-----------2--0----2--|


  |--3-|  |--3-|  |--3-|  |--3-|     |--3-|  |--3-|  |--3-|  |--3-|   
  Q    E  Q    E  Q    E  Q    E     Q    E  Q    E  Q    E  Q    E   
----------------------------------|----------------------------------|
----------------------------------|----------------------------------|
--4-------0-----------------------|--4-------0-----------------------|
-------2-------2--L----2--0----2--|-------2-------2--L----2--0----2--|


  |--3-|  |--3-|  |--3-|  |--3-|     |--3-|  |--3-|  |--3-|  |--3-|   
  Q    E  Q    E  Q    E  Q    E     Q    E  Q    E  Q    E  Q    E   
----------------------------------|----------------------------------|
----------------------------------|----------------------------------|
--4-------0-----------------------|--4-------0-----------------------|
-------2-------2--L----2--0----2--|-------2-------2--L----2--0----2--|


  |--3-|  |--3-|  |--3-|  |--3-|     |--3-|  |--3-|  |--3-|  |--3-|   
  Q    E  Q    E  Q    E  Q    E     Q    E  Q    E  Q    E  Q    E   
----------------------------------|----------------------------------|
----------------------------------|----------------------------------|
--4-------0-----------------------|--4-------0-----------------------|
-------2-------2--L----2--0----2--|-------2-------2--L----2--0----2--|


  |--3-|  |--3-|  |--3-|  |--3-|     |--3-|  |--3-|  |--3-|  |--3-|   
  Q    E  Q    E  Q    E  Q    E     Q    E  Q    E  Q    E  Q    E   
----------------------------------|----------------------------------|
----------------------------------|----------------------------------|
--4-------0-----------------------|--4-------0-----------------------|
-------2-------2--L----2--0----2--|-------2-------2--L----2--0----2--|


  |--3-|  |--3-|  |--3-|  |--3-|     |--3-|  |--3-|  |--3-|  |--3-|   
  Q    E  Q    E  Q    E  Q    E     Q    E  Q    E  Q    E  Q    E   
----------------------------------|----------------------------------|
----------------------------------|----------------------------------|
--4-------0-----------------------|--4-------0-----------------------|
-------2-------2--L----2--0----2--|-------2-------2--L----2--0----2--|


  |--3-|  |--3-|  |--3-|  |--3-|     |--3-|  |--3-|  |--3-|  |--3-|   
  Q    E  Q    E  Q    E  Q    E     Q    E  Q    E  Q    E  Q    E   
----------------------------------|----------------------------------|
----------------------------------|----------------------------------|
--4-------0-----------------------|--4-------0-----------------------|
-------2-------2--L----2--0----2--|-------2-------2--L----2--0----2--|


  |--3-|  |--3-|  |--3-|  |--3-|     |--3-|  |--3-|  |--3-|  |--3-|   
  Q    E  Q    E  Q    E  Q    E     Q    E  Q    E  Q    E  Q    E   
----------------------------------|----------------------------------|
----------------------------------|----------------------------------|
--4-------0-----------------------|--4-------0-----------------------|
-------2-------2--L----2--0----2--|-------2-------2--L----2--0----2--|


  |--3-|  |--3-|  |--3-|  |--3-|     |--3-|  |--3-|  |--3-|  |--3-|   
  Q    E  Q    E  Q    E  Q    E     Q    E  Q    E  Q    E  Q    E   
----------------------------------|----------------------------------|
----------------------------------|----------------------------------|
--4-------0-----------------------|--4-------0-----------------------|
-------2-------2--L----2--0----2--|-------2-------2--L----2--0----2--|


  W                   E  E  E  E  E  E     E  E  E  E  E  E   
-------------------|--------------------|--------------------|
--3----------------|--------------------|--------------------|
--1----------------|--3--2--3--2--1--2--|--3--2--3--2--1--2--|
--0----------------|--------------------|--------------------|


  E  E  E  E  E  E     E  E  E  E  E  E     E  E  E  E  E  E   
--------------------|--------------------|--------------------|
--------------------|--------------------|--------------------|
--3--2--3--2--1--2--|--3--2--3--2--1--2--|--3--2--3--2--1--2--|
--------------------|--------------------|--------------------|


  E  E  E  E  E  E     E  E  E  E  E  E     E  E  E  E  E  E   
--------------------|--------------------|--------------------|
--------------------|--------------------|--------------------|
--3--2--3--2--1--2--|--1--2--1--2--1--2--|--1--2--1--2--1--2--|
--------------------|--------------------|--------------------|


  E  E  E  E  E  E     E  E  E  E  E  E     E  E  E  E  E  E   
--------------------|--------------------|--------------------|
--------------------|--------------------|--------------------|
--3--2--3--2--1--2--|--3--2--3--2--1--2--|--------------------|
--------------------|--------------------|--5--4--5--4--5--4--|


  E  E  E  E  E  E     E  E  E  E  E  E     E  E  E  E  E  E   
--------------------|--------------------|--------------------|
--------------------|--------------------|--------------------|
--1--2--1--2--1--2--|--3--2--3--2--1--2--|--3--2--3--2--1--2--|
--------------------|--------------------|--------------------|


  E  E  E  E  E  E     E  E  E  E  Q       H.              H.            
--------------------|-------------------|---------------|---------------|
--------------------|-------------------|---------------|---------------|
--1--2--1--2--1--2--|--1--2--1--2-------|--4------------|--4------------|
--------------------|-------------------|---------------|---------------|


  H.              H.              S E.  Q    Q                             
---------------|---------------|------------------|-------|-------|-------|
---------------|---------------|------------------|-------|-------|-------|
--4------------|--4------------|--5---------------|-------|-------|-------|
---------------|---------------|------------------|-------|-------|-------|


-------|-------|-------|-------|-------|-------|-------|-------|-------|-------|
-------|-------|-------|-------|-------|-------|-------|-------|-------|-------|
-------|-------|-------|-------|-------|-------|-------|-------|-------|-------|
-------|-------|-------|-------|-------|-------|-------|-------|-------|-------|


-------|-------|-------|-------|-------|-------|-------|-------|-------|-------|
-------|-------|-------|-------|-------|-------|-------|-------|-------|-------|
-------|-------|-------|-------|-------|-------|-------|-------|-------|-------|
-------|-------|-------|-------|-------|-------|-------|-------|-------|-------|


                                                          Q    Q    Q    Q     
-------|-------|-------|-------|-------|-------|-------|----------------------|
-------|-------|-------|-------|-------|-------|-------|------------1----3----|
-------|-------|-------|-------|-------|-------|-------|-------3--------------|
-------|-------|-------|-------|-------|-------|-------|--4-------------------|


  Q    Q    Q    Q       Q    Q    Q    Q       Q    Q    Q    Q     
--1-------------------|----------------------|--1-------------------|
-------3----1---------|------------1----3----|-------3----1---------|
-----------------3----|-------3--------------|-----------------3----|
----------------------|--4-------------------|----------------------|


  Q    Q    Q    Q       Q    Q    Q    Q     
----------------------|--1-------------------|
------------1----3----|-------3----1---------|
-------3--------------|-----------------3----|
--4-------------------|----------------------|


  |--3--|  |--3--|  |--3--|  |--3--|                            |--3--|   
  E  E  E  E  E  E  E  E  E  E  E  E             Q    Q    Q    E  E  E   
--------------------------------------|-------|--------------------------|
--------------------------------------|-------|-------1---------------4--|
--------------------------------------|-------|------------2-------4-----|
--4--4--4--4--4--4--4--4--4--4--4--4--|-------|--2--------------4--------|


-------|-------|-------|-------|-------|-------|-------|-------|-------|
-------|-------|-------|-------|-------|-------|-------|-------|-------|
-------|-------|-------|-------|-------|-------|-------|-------|-------|
-------|-------|-------|-------|-------|-------|-------|-------|-------|


  Q    E  E  E  E     Q    E  E  E  E     Q    E  E  E  E     Q    E  E  E  E   
-------------------|-------------------|-------------------|-------------------|
-------------------|-------------------|--2----2--2--3--5--|--3----3--3--2--0--|
--3----3--3--5--7--|--5----5--5--3--5--|-------------------|-------------------|
-------------------|-------------------|-------------------|-------------------|


  Q    E  E  E  E     Q    E  Q    E     E  E  E  E  E  E     E  E  E  Q.      
-------------------|------------------|--------------------|------------------|
--2----2--2--0-----|--0----0--0-------|--------------------|--0--0--0--2------|
----------------3--|---------------3--|--1--1--1--3--3--3--|------------------|
-------------------|------------------|--------------------|------------------|


-------|-------|-------|-------|-------|-------|-------|-------|-------|-------|
-------|-------|-------|-------|-------|-------|-------|-------|-------|-------|
-------|-------|-------|-------|-------|-------|-------|-------|-------|-------|
-------|-------|-------|-------|-------|-------|-------|-------|-------|-------|


                                       |--3-|       |--3-|   
                                  Q    Q    E  Q    Q    E   
-------|-------|-------|-------|----------------------------|
-------|-------|-------|-------|----------------------------|
-------|-------|-------|-------|--3---------3--4---------4--|
-------|-------|-------|-------|----------------------------|


       |--3-|       |--3--|          |--3-|       |--3-|   
  Q    Q    E  Q    E  E  E     Q    Q    E  Q    Q    E   
-----------------------------|----------------------------|
-----------------------------|----------------------------|
--5---------5--6----6--5--4--|--3---------3--4---------4--|
-----------------------------|----------------------------|


       |--3-|       |-3-|            |--3--|             
  Q    Q    E  Q    S S S E     Q    E  E  E  Q    Q     
--------------------1-2-3-4--|--5----L--0--5------------|
--0---------0--1-------------|----------------4----3----|
-----------------------------|--------------------------|
-----------------------------|--------------------------|


       |--3--|                                                    
  Q    E  E  E  H           W                   W                 
----------------2--------|-------------------|-------------------|
--2----2--0--1-----------|-------------------|-------------------|
-------------------------|-------------------|-------------------|
-------------------------|-------------------|-------------------|


       |--3-|               |--3-|                  
  Q    Q    E  Q    Q       Q    E  Q    Q    Q     
--0----------------------|-------------------------|
------------3--0---------|-------3--3----2----0----|
-------------------------|-------------------------|
-------------------------|-------------------------|


  |--3-|  |--3-|  |--3-|  |--3-|     |--3-|  |--3-|  |--3-|  |--3-|   
  Q    E  Q    E  Q    E  Q    E     Q    E  Q    E  Q    E  Q    E   
----------2-------0----0--2----0--|----------2-------0----0--2----0--|
---------------2------------------|---------------2------------------|
--3----3--------------------------|--3----3--------------------------|
----------------------------------|----------------------------------|


       |--3-|               |--3-|                  
  Q    Q    E  Q    Q       Q    E  Q    Q    Q     
--0----------------------|-------------------------|
------------3--0---------|-------3--2----0---------|
-------------------------|--------------------3----|
-------------------------|-------------------------|


  |--3-|  |--3-|  |--3-|  |--3-|     |--3-|  |--3-|  |--3-|  |--3-|   
  Q    E  Q    E  Q    E  Q    E     Q    E  Q    E  Q    E  Q    E   
----------2-------0----0--2----0--|----------2-------0----0--2----0--|
---------------2------------------|---------------2------------------|
--3----3--------------------------|--3----3--------------------------|
----------------------------------|----------------------------------|


  W                   W                   W                 
-------------------|-------------------|-------------------|
-------------------|-------------------|-------------------|
--3----------------|-------------------|-------------------|
-------------------|-------------------|-------------------|


  Q    Q    Q    Q       Q    Q    Q    Q       Q    Q    Q    Q     
----------------------|----------------------|----------------------|
----------------------|----------------------|-------2----3---------|
--1----1----0---------|-------2----5----2----|--3--------------3----|
-----------------4----|--3-------------------|----------------------|


  Q    Q    Q    Q       Q    Q    Q    Q       Q    Q    Q    Q     
----------------------|----------------------|----------------------|
--3----3----2----1----|----------------------|----------------------|
----------------------|--1----1----0---------|-------2----5----2----|
----------------------|-----------------4----|--3-------------------|


  Q    Q    Q    Q       Q    Q    Q    Q       Q    Q    Q    Q     
-----------------2----|--3----2----0---------|----------------------|
-------2----5---------|-----------------3----|-------3--------------|
--3-------------------|----------------------|--1--------------5----|
----------------------|----------------------|------------1---------|


  Q    Q    Q    Q       Q    Q    Q    Q       Q    Q    Q    Q     
----------------------|----------------------|----------------------|
----------------------|------------1---------|-----------------4----|
--1---------1----0----|-------1---------1----|-------1----4---------|
-------1--------------|--3-------------------|--2-------------------|


  Q    Q    Q    Q       Q    Q    Q    Q       Q    Q    Q    Q     
----------------------|----------------------|----------------------|
----------------------|----------------------|-------2----5---------|
--1----1----0---------|-------2----5----2----|--3--------------3----|
-----------------4----|--3-------------------|----------------------|


  Q    Q    Q    Q                                                             
----------------------|-------|-------|-------|-------|-------|-------|-------|
----------------------|-------|-------|-------|-------|-------|-------|-------|
--1---------1---------|-------|-------|-------|-------|-------|-------|-------|
-------1--------------|-------|-------|-------|-------|-------|-------|-------|


                                          Q.     E  E     Q.     E  E   
-------|-------|-------|-------|-------|---------------|---------------|
-------|-------|-------|-------|-------|---------------|---------------|
-------|-------|-------|-------|-------|---------------|---------------|
-------|-------|-------|-------|-------|--0------0-----|--0------0-----|


  Q.     E  E     Q.     E  E     Q.     E  E     Q.     E  E     Q.     E  E   
---------------|---------------|---------------|---------------|---------------|
---------------|---------------|---------------|---------------|---------------|
---------------|---------------|---------------|---------------|---------------|
--0------0-----|--0------0-----|--0------0-----|--0------0-----|--0------0-----|


  Q.     E  E     Q.     E  E     Q.     E  E     Q.     E  E     Q.     E  E   
---------------|---------------|---------------|---------------|---------------|
---------------|---------------|---------------|---------------|---------------|
---------------|---------------|---------------|---------------|---------------|
--0------0-----|--0------0-----|--0------0-----|--0------0-----|--0------0-----|


  Q.     E  E     Q.     E  E     Q.     E  E     Q.     E  E     Q.     E  E   
---------------|---------------|---------------|---------------|---------------|
---------------|---------------|---------------|---------------|---------------|
---------------|---------------|---------------|---------------|---------------|
--0------0-----|--0------0-----|--0------0-----|--0------0-----|--0------0-----|


  Q.     E  E     Q.     E  E     Q.     E  E     Q.     E  E     Q.     E  E   
---------------|---------------|---------------|---------------|---------------|
---------------|---------------|---------------|---------------|---------------|
---------------|---------------|---------------|---------------|---------------|
--0------0-----|--0------0-----|--0------0-----|--0------0-----|--0------0-----|


  Q.     E  E     Q.     E  E    
---------------|---------------||
---------------|---------------||
---------------|---------------||
--0------0-----|--0------0-----||




Duration Legend
---------------
W - whole
H - half
Q - quarter
E - 8th
S - 16th
T - 32nd
X - 64th
. - note dotted
|-n-|  - n-tuplets


Tablature Legend
----------------
L - tied note
x - dead note
g - grace note
(n) - ghost note
> - accentuded note
NH - natural harmonic
AH - artificial harmonic
TH - tapped harmonic
SH - semi harmonic
PH - pitch harmonic
h - hammer on
p - pull off
b - bend
br - bendRelease
pb - preBend
pbr - preBendRelease
brb - bendReleaseBend
\n/ - tremolo bar dip
\n - tremolo bar dive
-/n - tremolo bar Release up
/n\ - tremolo bar inverted dip
/n - tremolo bar return
-\n - tremolo bar Release down
S - shift slide
s - legato slide
/ -  slide into from below or out of upwards
\ -  slide into from above or out of downwards
~ - vibrato
W - wide vibrato
tr - trill
TP - tremolo picking
T - tapping
S - slap
P - pop
< - fade in
^ - brush up
v - brush down

            
            
Suggest correction
Creating personal tab
Creating personal tab
You can edit any tab online and save it as your Personal.

You can edit, replace or remove any tab part or add personal notes – all changes will be seen only by you.

Personal tabs can be accessed anytime from any device, even offline.
Learn more »
Give kudos to tab author, rate the tab!
1 2 3 4 5
comments
print report bad tab
guest
Wanna post a correction for this tab? Suggest correction