Oops, an error
Loading. Please wait.

Cletus Awreetus Awrightus tab

3,038 views 3 this week
1 commentread comment
1 2 3 4 5
1 last vote to show rating
add to favorites
×
Save as Personal and add changes to this tab that will be seen only by you. Learn more ›
×
You can save this tab as Personal to edit and correct it or add notes. All changes will be seen only by you. Learn more »
launch autoscroll
font size
0
reset
how to read this tab
guitar tuner
edit
Autoscroll
slow
fast
+/-
esc
set tempo
stop
Difficulty
intermediate
Frank Zappa
Cletus Awreetus Awrightus
The Grand Wazoo

there was a tab of this tune floating around on the net but it wasnt complete,
so ive completed it.


Theme 1
---------------------------------|
---------------------------------|
---------------------------------|
-----------2--3--3-3-2-0--2------|
-4---4-4-5----5--------------4---|
-5---------------------------5---|

-----------------------------------------------|
-----------------------------------------------|
-----------------------------------------------|
--------------3---5--3-------------------------|
----------3-5----------5-3---3----1-3-1-----1--|
-3-3--3-6------------------6------------3-1----|

----------------------------------------|
----------------------------------------|
----------------------------------------|
--------------------2--------------2----|
-1-1-3-5-3----3-3-5---5----5-5-3--------|
---------------------------------5------|

------------------------------------------------------------|
------------------------------------------------------------|
-------------------------------------------------------9h10-|
-12-12-11-11-9-9--------------------12-12----12-11-9--------|
-----------------12-12--11-12-11-7-------------------12-----|
------------------------------------------------------------|

-9--------------9-------------9---------------|
---12-10----------12-10---------12-10---------|
---------11~-9----------11~-9---------11~-9---|
----------------------------------------------|
----------------------------------------------|
----------------------------------------------|

Theme 1
---------------------------------------|
---------------------------------------|
---------------9-10---10-10-9----9-----|
-11---11-11-12---12-----------12---11--|
-12--------------------------------12--|
---------------------------------------|

------------------------------------------------------------|
------------------------------------------------------------|
--------------------10---12--10-----------------------------|
--------------10-12-------------12-10----10--8-10-8------8--|
-10-10--10-13-------------------------13------------10-8----|
------------------------------------------------------------|

-----------------------------------------------|
-----------------------------------------------|
--------------------------9------------------9-|
-8-8-10-12-10----10-10-12---12---12-12-10------|
------------------------------------------12---|
-----------------------------------------------|

---------------------------------------------------------------------------|
---------------------------------------------------------------------------|
-------------------------------------------------------9h10-9-12-------10--|
-12-12-11-11-9-9--------------------12-12----12-11-9-------------12--------|
-----------------12-12--11-12-11-7-------------------12-------------12-----|
---------------------------------------------------------------------------|

-----4---------4---------4---------------8------------8----------8-----------|
---4---4-----4---4-----4---4-----------8---8--------8---8------8---8---etc---|
--5------5--5-----5--5------5--------9-------9----9-------9--9------9--------|
-6---------6--------6--------6--8--10-----------10----------10--------10-----|
-----------------------------------------------------------------------------|
-----------------------------------------------------------------------------|

---------------------------------------------------------------------------|
---------------------------------------------------------------------------|
-------------------------------------------------------9h10-9-12-------10--|
-12-12-11-11-9-9--------------------12-12----12-11-9-------------12--------|
-----------------12-12--11-12-11-7-------------------12-------------12-----|
---------------------------------------------------------------------------|

-----4---------4---------4---------------8------------8----------8----------|
---4---4-----4---4-----4---4-----------8---8--------8---8------8---8--------|
--5------5--5-----5--5------5--------9-------9----9-------9--9------9---etc-|
-6---------6--------6--------6--8--10-----------10----------10-------10-----|
----------------------------------------------------------------------------|
----------------------------------------------------------------------------|

-9-------------9------------9------------9-9-------------------------|
---12-10---------12-10--------12-10----------12p11p10----12----------|
---------11~9----------11~9---------11~9--------------12----10-------|
---------------------------------------------------------------10-10-|
---------------------------------------------------------------------|
---------------------------------------------------------------------|

C#                                Bb                      G

C#                                Bb                      G

E7

C#m              B                C#m                     B

-7---------------5------------9--------------|
---10-7------------8-5----------12-10--------|
--------9~-7-----------7~-5-----------11~-9--|
---------------------------------------------|
---------------------------------------------|
---------------------------------------------|


Theme 1 Reprise
 La la...
---------------------------------------|
---------------------------------------|
---------------9-10---10-10-9----9-----|
-11---11-11-12---12-----------12---11--|
-12--------------------------------12--|
---------------------------------------|

 LA LA LALALALALA....
-----------------------------------------------|
-----------------------------------------------|
-----------------------------------------------|
--------------3---5--3-------------------------|
----------3-5----------5-3---3----1-3-1-----1--|
-3-3--3-6------------------6------------3-1----|

----------------------------------------|
----------------------------------------|
----------------------------------------|
--------------------2--------------2----|
-1-1-3-5-3----3-3-5---5----5-5-3--------|
---------------------------------5------|


------------------------------------------------------------|
------------------------------------------------------------|
-------------------------------------------------------9h10-|
-12-12-11-11-9-9--------------------12-12----12-11-9--------|
-----------------12-12--11-12-11-7-------------------12-----|
------------------------------------------------------------|


 Ti Teer de ti ti ti...
---------------------------------------|
---------------------------------------|
---------------9-10---10-10-9----9-----|
-11---11-11-12---12-----------12---11--|
-12--------------------------------12--|
---------------------------------------|

 Rum Pum Pum pum...
-----------------------------------------------|
-----------------------------------------------|
-----------------------------------------------|
--------------3---5--3-------------------------|
----------3-5----------5-3---3----1-3-1-----1--|
-3-3--3-6------------------6------------3-1----|

----------------------------------------|
----------------------------------------|
----------------------------------------|
--------------------2--------------2----|
-1-1-3-5-3----3-3-5---5----5-5-3--------|
---------------------------------5------|

------------------------------------------------------------|
------------------------------------------------------------|
-------------------------------------------------------9h10-|
-12-12-11-11-9-9--------------------12-12----12-11-9--------|
-----------------12-12--11-12-11-7-------------------12-----|
------------------------------------------------------------|


-9-------------9------------9------------9-9-------------------------|
---12-10---------12-10--------12-10----------12p11p10----12----------|
---------11~9----------11~9---------11~9--------------12----10-------|
---------------------------------------------------------------10-10-|
---------------------------------------------------------------------|
---------------------------------------------------------------------|


panzerkampfwagen@gmail.com

            
            
Suggest correction
Creating personal tab
Creating personal tab
You can edit any tab online and save it as your Personal.

You can edit, replace or remove any tab part or add personal notes – all changes will be seen only by you.

Personal tabs can be accessed anytime from any device, even offline.
Learn more »
Give kudos to tab author, rate the tab!
1 2 3 4 5
comments
print report bad tab
1 comment total.
+1 reply
l74logan 20 Apr 28, 2008 10:05 AM

This is how I hear the very last riff of the song (it happens other places in the song as well). I've copied the last line from the above tab and changed what I think is wrong:

-9-------------9------------9------------9-7-9p7-----7---------------|
---12-10---------12-10--------12-10--------------9-7-----------------|
---------11~9----------11~9---------11~9---------------9---6-6-------|
---------------------------------------------------------------------|
---------------------------------------------------------------------|
---------------------------------------------------------------------|

guest
Wanna post a correction for this tab? Suggest correction