Oops, an error
Loading. Please wait.

Concentration Moon bass

16 views 1 this week
no commentswrite comment
1 2 3 4 5
2 more votes to show rating
add to favorites
×
Save as Personal and add changes to this tab that will be seen only by you. Learn more ›
×
You can save this tab as Personal to edit and correct it or add notes. All changes will be seen only by you. Learn more »
launch autoscroll
font size
0
reset
guitar tuner
edit
Autoscroll
slow
fast
+/-
esc
set tempo
stop
Frank Zappa & Mothers of Invention - Concentration Moon
from We're Only in it for the Money (1968)

Tabbed by Leo Chiurco

[Verse 1] "Concentration moon ..."
G|-------------------------|-------------------------|
D|-------------------------|-------------------------|
A|-------------------------|-6---------------------6-| 
E|-6---------------------6-|-------------------------|  
   1 + + + 2 + + + 3 + + +   1 + + + 2 + + + 3 + + +     

G|-------------------------|-------------------------|  
D|-------------------------|-------5-----------------| 
A|-8-----------------------|-8-------8-----6-5-------|
E|-------------------------|-------------------------|
   1 + + + 2 + + + 3 + + +   1 + + + 2 + + + 3 + + + 

G|-------------------------|-------------------------|
D|-8---------------------8-|-------------------------|
A|-------------------------|-6---------------------6-| 
E|-------------------------|-------------------------|  
   1 + + + 2 + + + 3 + + +   1 + + + 2 + + + 3 + + +     

G|-------------------------|-------------------------|  
D|-------------------------|-------5-----------------| 
A|-8-----------------------|-8-------8-----6-5-------|
E|-------------------------|-------------------------|
   1 + + + 2 + + + 3 + + +   1 + + + 2 + + + 3 + + + 

G|-------------------------|-------------------------|
D|-------------------------|-------------------------|
A|-------------------------|-6---------------------6-| 
E|-6---------------------6-|-------------------------|  
   1 + + + 2 + + + 3 + + +   1 + + + 2 + + + 3 + + +     

G|-------------------------|-------------------------|  
D|-------------------------|-------------------------| 
A|-8-----------------------|-------------------------|
E|-------------------------|-------------------------|
   1 + + + 2 + + + 3 + + +   1 + + + 2 + + + 3 + + + 

G|-------------------------|-------------------------|
D|-8---------------------8-|-------------------------|
A|-------------------------|-6---------------------6-| 
E|-------------------------|-------------------------|  
   1 + + + 2 + + + 3 + + +   1 + + + 2 + + + 3 + + +     

G|-------------------------|-------------------------|  
D|-------------------------|-------------------------| 
A|-8-----------------------|-8-------8-------9-------|
E|-------------------------|-------------------------|
   1 + + + 2 + + + 3 + + +   1 + + + 2 + + + 3 + + + 

[Pre-chorus 2] "With all of my friends ..."
G|-------------------------|-------------------------|  
D|-------------------------|-------------------------| 
A|-10----------------------|-10--------------------x-|
E|-------------------------|-------------------------|
   1 + + + 2 + + + 3 + + +   1 + + + 2 + + + 3 + + + 

G|-------------------------|-------------------------|  
D|-------------------------|-------------------------| 
A|-------------------------|-------------------------|
E|-8-----------------------|-8-----------------------|
   1 + + + 2 + + + 3 + + +   1 + + + 2 + + + 3 + + + 

G|-------------------------|-------------------------|  
D|-------------------------|-------------------------| 
A|-6-----------------------|-6-----------------------|
E|-------------------------|-------------------------|
   1 + + + 2 + + + 3 + + +   1 + + + 2 + + + 3 + + + 

G|-------------------------|-------------------------|  
D|-------------------------|-------------------------| 
A|-x-8---------------------|-x-8---------------------|
E|-------------------------|-------------------------|
   1 + + + 2 + + + 3 + + +   1 + + + 2 + + + 3 + + + 

G|-------------------------|-------------------------|  
D|-------------------------|-------------------------| 
A|-8.------8.------8.------|-8.------8.------8.------| (x2)
E|-------------------------|-------------------------|
   1 + + + 2 + + + 3 + + +   1 + + + 2 + + + 3 + + + 

[Chorus 1] "American way ..."
G|---------------------------------|---------------------------------|
D|---------------------------------|---------------------------------|
A|-----------------6-----------6---|-8-----------8---8---x---10------| (x4)
E|-8-----------8-------------------|---------------------------------|
   1 + + + 2 + + + 3 + + + 4 + + +   1 + + + 2 + + + 3 + + + 4 + + +

G|---------------------------------|---------------------------------|
D|---------------------------------|-----------------8---------------|
A|---------------------------------|-------------8---------------8---| (x2)
E|-6-----------6---6---------------|-6-------------------------------|
   1 + + + 2 + + + 3 + + + 4 + + +   1 + + + 2 + + + 3 + + + 4 + + +

G|---------------------------------|---------------------------------|
D|---------------------------------|-----------------11--------------|
A|---------------------------------|-------------11--------------11--|
E|-9-----------9---9---------------|-9-------------------------------|
   1 + + + 2 + + + 3 + + + 4 + + +   1 + + + 2 + + + 3 + + + 4 + + +

G|-------------------------------------------------|-------------------------------------------------|
D|-------------------------------------------------|-------------------------------------------------|
A|-----------10-10----------8----------------------|--8-----------8-----------8----------------------|
E|--9----------------------------------------------|-------------------------------------------------|
    1  +  +  +  2  +  +  +  3  +  +  +  4  +  +  +    1  +  +  +  2  +  +  +  3  +  +  +  4  +  +  + 

(No bass 'till 1:17)
"Hi boys and girls I'm Jimmy Carl Black and I'm the indian of the group"

[Verse 2] "Concentration moon ..."
G|-------------------------|-------------------------|
D|-------------------------|-------------------------|
A|-------------------------|-6---------------------6-| 
E|-6---------------------6-|-------------------------|  
   1 + + + 2 + + + 3 + + +   1 + + + 2 + + + 3 + + +     

G|-------------------------|-------------------------|  
D|-------------------------|-------5-----------------| 
A|-8-----------------------|-8-------8-----6-5-------|
E|-------------------------|-------------------------|
   1 + + + 2 + + + 3 + + +   1 + + + 2 + + + 3 + + + 

G|-------------------------|-------------------------|
D|-8---------------------8-|-------------------------|
A|-------------------------|-6---------------------6-| 
E|-------------------------|-------------------------|  
   1 + + + 2 + + + 3 + + +   1 + + + 2 + + + 3 + + +     

G|-------------------------|-------------------------|  
D|-------------------------|-------5-----------------| 
A|-8-----------------------|-8-------8-----6-5-------|
E|-------------------------|-------------------------|
   1 + + + 2 + + + 3 + + +   1 + + + 2 + + + 3 + + + 

G|-------------------------|-------------------------|
D|-------------------------|-------------------------|
A|-------------------------|-6---------------------6-| 
E|-6---------------------6-|-------------------------|  
   1 + + + 2 + + + 3 + + +   1 + + + 2 + + + 3 + + +     

G|-------------------------|-------------------------|  
D|-------------------------|-------------------------| 
A|-8-----------------------|-------------------------|
E|-------------------------|-------------------------|
   1 + + + 2 + + + 3 + + +   1 + + + 2 + + + 3 + + + 

G|-------------------------|-------------------------|
D|-8---------------------8-|-------------------------|
A|-------------------------|-6---------------------6-| 
E|-------------------------|-------------------------|  
   1 + + + 2 + + + 3 + + +   1 + + + 2 + + + 3 + + +     

G|-------------------------|-------------------------|  
D|-------------------------|-------------------------| 
A|-8-----------------------|-8-------8-------9-------|
E|-------------------------|-------------------------|
   1 + + + 2 + + + 3 + + +   1 + + + 2 + + + 3 + + + 

[Pre-chorus 1] "With all of my friends ..."
G|-------------------------|-------------------------|  
D|-------------------------|-------------------------| 
A|-10----------------------|-10--------------------x-|
E|-------------------------|-------------------------|
   1 + + + 2 + + + 3 + + +   1 + + + 2 + + + 3 + + + 

G|-------------------------|-------------------------|  
D|-------------------------|-------------------------| 
A|-------------------------|-------------------------|
E|-8-----------------------|-8-----------------------|
   1 + + + 2 + + + 3 + + +   1 + + + 2 + + + 3 + + + 

G|-------------------------|-------------------------|  
D|-------------------------|-------------------------| 
A|-6-----------------------|-6-----------------------|
E|-------------------------|-------------------------|
   1 + + + 2 + + + 3 + + +   1 + + + 2 + + + 3 + + + 

G|-------------------------|-------------------------|  
D|-------------------------|-------------------------| 
A|-x-8---------------------|-x-8---------------------|
E|-------------------------|-------------------------|
   1 + + + 2 + + + 3 + + +   1 + + + 2 + + + 3 + + + 

G|-------------------------|-------------------------|  
D|-------------------------|-------------------------| 
A|-8.------8.------8.------|-8.------8.------8.------| (x2)
E|-------------------------|-------------------------|
   1 + + + 2 + + + 3 + + +   1 + + + 2 + + + 3 + + + 

[Chorus 2] "American way ..."
G|---------------------------------|---------------------------------|
D|---------------------------------|---------------------------------|
A|-----------------6-----------6---|-8-----------8---8---x---10------| (x4)
E|-8-----------8-------------------|---------------------------------|
   1 + + + 2 + + + 3 + + + 4 + + +   1 + + + 2 + + + 3 + + + 4 + + +

G|---------------------------------|---------------------------------|
D|---------------------------------|-----------------8---------------|
A|---------------------------------|-------------8---------------8---| (x2)
E|-6-----------6---6---------------|-6-------------------------------|
   1 + + + 2 + + + 3 + + + 4 + + +   1 + + + 2 + + + 3 + + + 4 + + +

G|---------------------------------|---------------------------------|
D|---------------------------------|-----------------11--------------|
A|---------------------------------|-------------11--------------11--|
E|-9-----------9---9---------------|-9-------------------------------|
   1 + + + 2 + + + 3 + + + 4 + + +   1 + + + 2 + + + 3 + + + 4 + + +

G|-------------------------------------------------|-------------------------------------------------|
D|-------------------------------------------------|-------------------------------------------------|
A|-----------10-10----------8----------------------|--8-----------8-----------8----------------------|
E|--9----------------------------------------------|-------------------------------------------------|
    1  +  +  +  2  +  +  +  3  +  +  +  4  +  +  +    1  +  +  +  2  +  +  +  3  +  +  +  4  +  +  + 

********************************

| x Dead note
| . Staccato

********************************

            
            
Suggest correction
Creating personal tab
Creating personal tab
You can edit any tab online and save it as your Personal.

You can edit, replace or remove any tab part or add personal notes – all changes will be seen only by you.

Personal tabs can be accessed anytime from any device, even offline.
Learn more »
Give kudos to tab author, rate the tab!
1 2 3 4 5
comments
print report bad tab
guest
You may want to rate the tab now too:
select rating
Wanna post a correction for this tab? Suggest correction