Oops, an error
Loading. Please wait.

Dumb All Over Tab

version 2
version 2

Whole song

233 views 6 this week
no commentswrite comment
1 2 3 4 5
excellent!
x 1
add to favorites
launch autoscroll
font size
0
reset
how to read this tab
guitar tuner
Tab Pro tools
  • play this tab
  • loop segment
  • change instrument
  • show fretboard
  • metronome
Autoscroll
slow
fast
+/-
esc
set tempo
stop
Contributor
The ‘You Are What You Is’ album version is up a half step. The essential progression  is  as follows:

 C5      A5      D5      G5        
|--------------------------------|
|--------------------------------|
|5---------------7---------------|
|5-------7-------7-------5-------|
|3-------7-------5-------5-------|
|--------5---------------3-------|
|1   &   2   &   3   &   4   &   |

But it’s nicely ‘disguised’ like this:

                         G5       C5      A5      D5
|--------------------------------|--------------------------------|
|--------------------------------|--------------------------------|
|------------------------------5-|--5-----------9\7---------------|
|-----------------------(5)----5-|--5----(7)----9\7---------------|
|-----------------------(5)----3-|--3----(7)----7\5---------------|
|------------------------3p0-----|--------5-----------------------|
|1   &   2   &   3   &   4   &   |1   &   2   &   3   &   4   &   |

That’s all there is to the main guitar part. The solo may be in C Lydian, as the key centre is C, but it begins with an A bent up from the 15th to the 17th so maybe it’s A dorian (same notes as C Lydian).  
comments
We did not receive enough feedback on this tab! Please rate:
print report bad tab
1 2 3 4 5
I want to post or [tab]
guest
You may want to rate the tab now too:
select rating
Please do not post tabs as comments. Select "correction" instead!