Oops, an error
Loading. Please wait.

Eat That Question Tab

version 1
version 1

Whole song

Interactive

5,729 views 18 this week
3 commentsread comments
1 2 3 4 5
accurate
x 6
add to favorites
launch autoscroll
font size
0
reset
how to read this tab
guitar tuner
Tab Pro tools
  • play this tab
  • loop segment
  • change instrument
  • show fretboard
  • metronome
×
Best way to learn
"Eat That Question"
Autoscroll
slow
fast
+/-
esc
set tempo
stop
Contributor
Difficulty
Tabbed by: Free to Guitar
Email: alamarianusp at yahoo.com
For my first tab, I picked a great fusion number by FZ. I hope someone better
than I can figure out the solo.
()=optional note.
h=hammer-on.
p=pull-off.
/=slide down.
\=slide up.

Keyboard intro. 0:00-0:44
Guitar riff. 0:44
e|---------------------------------------------------------------------------|
B|---------------------------------------------------------------------------|
G|---------------------------------------------------------------------------|
D|--------------2-0-2----4--2h4p2--0-----------------------------------------|
A|------------------------------------0-0-2-4-2--4--2h4p2--0-2---------------|
E|-(13\)----0-3-------------------------------------------------3--0---------|
The slide at the start is optional, hard to hear over Duke's keyboards.

e|---------------------------------------------------------------------------|
B|---------------------------------------------------------------------------|
G|---------------------------------------------------------------------------|
D|------2-0-2----4--2h4p2--0-------------------------------------------------|
A|----------------------------0-0-2-4-2--4--2h4p2--0-2-----------------------|
E|--0-3-------------------------------------------------3--0----3/-----------|

Keyboards 1:14-3:18, guitar solo 3:18-4:50.
Main riff again, slowed down, with heavy wah and reverb. 5:02
e|---------------------------------------------------------------------------|
B|---------------------------------------------------------------------------|
G|---------------------------------------------------------------------------|
D|------2-0-2----4--2h4p2--0-------------------------------------------------|
A|----------------------------0-0-2-4-2--4--2h4p2--0-2-----------------------|
E|--0-3-------------------------------------------------3--0-----------------|

e|---------------------------------------------------------------------------|
B|---------------------------------------------------------------------------|
G|---------------------------------------------------------------------------|
D|------2-0-2----4--2h4p2--0-------------------------------------------------|
A|----------------------------0-0-2-4-2--4--2h4p2--0-2-----------------------|
E|--0-3-------------------------------------------------3--0-----------------|
comments
print report bad tab
3 comments total.
0 reply
bigfootone212 wrote on November 3 2008, 06:44 pm

thanks for this man, i've been wanting to learn this song, and this was a great starter for me!

0 reply
epic frog wrote on February 2 2010, 11:33 pm

the second half of this riff needs a few more notes to play it right. it's not bad but half-hearted toward the end.

A----0-2-4-2-4-2h4p2p0h2p0---0-2--------|
E-------------------------h3-----3-0----|

there ya go, enjoy

+1 reply
epic frog wrote on February 2 2010, 11:54 pm

D------2-0-2---4-2420-------------------------------
A--------------------0---0-2-4-2-4-242020--0-2------
E--0-3-----------------------------------3-----3-0--

I want to post or [tab]
guest
You may want to rate the tab now too:
select rating
Please do not post tabs as comments. Select "correction" instead!