Oops, an error
Loading. Please wait.

Fembot In A Wet T-Shirt Tab

3,648 views 6 this week
1 commentread comment
1 2 3 4 5
accurate
x 4
add to favorites
launch autoscroll
font size
0
reset
how to read this tab
guitar tuner
Tab Pro tools
  • play this tab
  • loop segment
  • change instrument
  • show fretboard
  • metronome
Autoscroll
slow
fast
+/-
esc
set tempo
stop
Contributor
Difficulty
advanced
-----------------------------------------------------------------------------
                  FEMBOT IN A WET T-SHIRT - Frank Zappa  
-----------------------------------------------------------------------------                
Tabbed by: kennezar (Kenneth Dale Harris IV)
Email: kenny4@kdharris.net

Tuning: Standard
Beginning Riff:
e|-----------|--9p7----|-----7-----|--------------|---------------|
B|------5-5--|---------|--/9---7~--|----9p7-9p7---|-----5-5----5--|
G|--4h6------|---------|-----------|--------------|--4h6----4h6---|
D|-----------|---------|-----------|--------------|---------------|
A|-----------|---------|-----------|--------------|---------------|
E|-----------|---------|-----------|--------------|---------------|

e|---9--|-----7-------------------------|
B|------|--/9---7~----------------------|
G|------|-------------------4-----------| 
D|------|-------------2h4h6---6-4-2-2~--|
A|------|-------------------------------|
E|------|-------------------------------|
Verse: 
e|-7-7---7-7---7-7---7-7---5-5---5-5---5---7---7---7------|
B|-7-7---7-7---7-7---7-7---5-5---5-5---5---7h9-7h9-9p7----|
G|--------------------------------------------------------|
D|--------------------------------------------------------|
A|--------------------------------------------------------|
E|--------------------------------------------------------|
Chorus:
e|-----------|-----------------|-------------------------|
B|-3----4----|--3----4----5----|--8-------5--------------|
G|-5^7--6^8--|--5^7--6^8--7^9--|--10^12---7^9------------|
D|-----------|-----------------|-------------------------|
A|-----------|-----------------|-------------------------|
E|-----------|-----------------|-------------------------|
Fill:
e|---------------------------------------------------------|
B|--10---9---8---7-7-----10---9---8---7-7------------------|
G|-----9---9---9-----9------9---9---9-----9----------------|
D|---------------------------------------------------------|
A|---------------------------------------------------------|
E|---------------------------------------------------------|
Verse: 
e|-7-7---7-7---7-7---7-7---5-5---5-5---5---7---7---7------|
B|-7-7---7-7---7-7---7-7---5-5---5-5---5---7h9-7h9-9p7----|
G|--------------------------------------------------------|
D|--------------------------------------------------------|
A|--------------------------------------------------------|
E|--------------------------------------------------------|

Chorus:
e|-----------|-----------------|-------------------------|
B|-3----4----|--3----4----5----|--8-------5--------------|
G|-5^7--6^8--|--5^7--6^8--7^9--|--10^12---7^9------------|
D|-----------|-----------------|-------------------------|
A|-----------|-----------------|-------------------------|
E|-----------|-----------------|-------------------------|
Fill:
e|-7-8-10-8-7---------|----8-----------------|----13-12----10-9----(9)---7-|
B|------------10-8-10-|-11---11-10-8----8-10-|-11-------10-----------------|
G|--------------------|--------------10------|-----------------------------|
D|--------------------|----------------------|-----------------------------|
A|--------------------|----------------------|-----------------------------|
E|--------------------|----------------------|-----------------------------|


e|-6---------------|-----------------|-------4-----8-7-|-9-6-------------|
B|---9-------------|-----------------|-6-------5-6-----|---------6---6-6-|
G|-----9-8-7---6-5-|-----------5-----|---5-6-----------|-----7-8---8-----|
D|-----------8-----|-5-4-3-2-----7-8-|-----------------|-----------------|
A|-----------------|---------4-------|-----------------|-----------------|
E|-----------------|-----------------|-----------------|-----------------|

e|---------------4-|-----------------|-4---5----5-------------6---5--|
B|-7-7-6-6-5-5-6---|-4-3-2-3-6-4-----|---8------------7-6------------|
G|-----------------|-----------------|--------------------------5----|
D|-----------------|-------------4-7-|--------8-----------5-8--------|
A|-----------------|-----------------|-------------------------------|
E|-----------------|-----------------|-------------------------------|


e|---------------|---------------|----------------------------------------|
B|---------------|---------------|-----------8----8----------8-----8--8-8-|
G|-4-------------|---------------|----------------------------------------|
D|-----3---2-----|-1-------------|-6----6-----------------6---------------|
A|---------------|-----1---3-3---|----------------------------------------|
E|---------------|---------------|----------------------------------------|

e|----6---6-6---6p5h6-7---7-7-7-7-7-6\--------|
B|--------------------------------------------|
G|--------------------------------------------|
D|-6------------------------------------------|
A|--------------------------------------------|
E|--------------------------------------------|
Verse: 
e|-7-7---7-7---7-7---7-7---5-5---5-5---5---7---7---7------|
B|-7-7---7-7---7-7---7-7---5-5---5-5---5---7h9-7h9-9p7----|
G|--------------------------------------------------------|
D|--------------------------------------------------------|
A|--------------------------------------------------------|
E|--------------------------------------------------------|
Chorus:
e|-----------|-----------------|-------------------------|
B|-3----4----|--3----4----5----|--8-------5--------------|
G|-5^7--6^8--|--5^7--6^8--7^9--|--10^12---7^9------------|
D|-----------|-----------------|-------------------------|
A|-----------|-----------------|-------------------------|
E|-----------|-----------------|-------------------------|
Fill:
e|-----------------------------------------------|
B|--13-13-13-17-13-13---13-13-13-15-17-19-19-----|
G|-----------------------------------------------|
D|-----------------------------------------------|
A|-----------------------------------------------|
E|-----------------------------------------------|

| /  slide up
| \  slide down
| h  hammer-on
| p  pull-off
| ~  vibrato
| +  harmonic
| x  Mute note
============================================================================
comments
print report bad tab
1 comment total.
0 reply
furrycow wrote on December 9 2006, 01:50 pm

great tab. Really surprised someone's tabbed it, but i'm really pleased they have. thanks.

I want to post or [tab]
guest
You may want to rate the tab now too:
select rating
Please do not post tabs as comments. Select "correction" instead!