Oops, an error
Loading. Please wait.

Im The Slime Tab

version 1
version 1

Whole song

24,012 views 15 this week
3 commentsread comments
1 2 3 4 5
x 11
add to favorites
launch autoscroll
font size
0
reset
how to read this tab
guitar tuner
×
Best way to learn
"Im The Slime"
Autoscroll
slow
fast
+/-
esc
set tempo
stop
Author
-------------------------------------------------------------------------------
                             I'm The Slime - Frank Zappa
-------------------------------------------------------------------------------
Tabbed by: Zah
Email: Ihaveimedu@aol.com

Tuning: E A D G B e

Alright so after the crazy solo part in the beginning it gets into the main riff,
which is this...

Riff 1:
e|-----------------------------------------------------------------------------|
B|-----5--7---5------------------------5--7-----5------------------------------|
G|--6-------6---  6p4-----4-6-4-----6--------6-----6p4------4--6--------- -----|
D|---------------------7---------------------------------7--------7--4 --------|
A|-----------------------------------------------------------------------------|
E|-----------------------------------------------------------------------------|

Play that Riff four times, then on the fifth time play this...

Riff 2:
e|----------------------------|
B|--5-----------5-------------|
G|----7--6---4----------------|
D|---------7------------------|
A|----------------------------|
E|----------------------------|

Play that Riff 3 times, and on the fourth time it ends like this...

e|----------------------------------|
B|----------------------------------|
G|--4--5--4-------------------------|
D|------------7--5--4--3------------|
A|----------------------------------|
E|----------- ----------------------|

Then Frank does his talking which is done in the key of D, and the music in the
backround is just like fooling around in D.  Then he goes back to riff 1, and then
enters the solo.

The end.  Email if you have questions.


| /  slide up
| \  slide down
| h  hammer-on
| p  pull-off
| ~  vibrato
| +  harmonic
| x  Mute note
Suggest correction
comments
print report bad tab
3 comments total.
0 reply
NIrvana_267 10 Sep 18, 2007 03:06 PM

thats awesome gud job

0 reply
dirtyguitar375 10 Aug 26, 2008 08:07 PM

i play riff 2 like this:
-------------------------------------------------------------------
-------------------------------------------------------------------
-9-7-6-------9----9--7--6---------9--9--7-6----------9-------
-------7--9-----------------7--9--------------7--9-------------
------------------------------------------------------------------
------------------------------------------------------------------


no real difference but i think thr pattern is easier

0 reply
count dragula 10 Feb 01, 2010 09:09 AM

The first riff starts at the 4th fret on the A string, then down to the second fret on the D string, and 4th fret on the D string and onward...

The second riff looks pretty solid though.

guest
You may want to rate the tab now too:
select rating
Wanna post a correction for this tab? Suggest correction