Oops, an error
Loading. Please wait.

Im The Slime tab

version 3
version 3

Whole song

850 views 24 this week
no commentswrite comment
1 2 3 4 5
x 3
add to favorites
×
Save as Personal and add changes to this tab that will be seen only by you. Learn more ›
×
You can save this tab as Personal to edit and correct it or add notes. All changes will be seen only by you. Learn more »
launch autoscroll
font size
0
reset
how to read this tab
guitar tuner
edit
Autoscroll
slow
fast
+/-
esc
set tempo
stop
Both versions I've seen of this tab have some correct parts, but neither have an accurate entire song.


[Intro]

e|---------------------------------------------------------|
B|---------------------------------------------------------|
G|---------------------------------------------------------|
D|----2-4----2--------------------2-4----2-----------------|
A|--4------4----4-2-0--2--4-2---4------4----4-2-0-2-4-0----|
E|------------------------------------------------------2--|

e|---------------------------------------------------------|
B|---------------------------------------------------------|
G|---------------------------------------------------------|
D|----2-4----2--------------------2-4----2-----------------|
A|--4------4----4-2-0--2--4-2---4------4----4-2-0-2-4-0----|
E|------------------------------------------------------2--|

Horns Come In Here

e|---------------------------------------------------------|
B|----5-7----5--------------------5-7----5-----------------|
G|--6------6----6-4----4--6-4---6------6---6-4---4-6-------|
D|------------------7--------------------------7-----7-4---|
A|---------------------------------------------------------|
E|---------------------------------------------------------|

e|---------------------------------------------------------|
B|----5-7----5--------------------5-7----5-----------------|
G|--6------6----6-4----4--6-4---6------6---6-4---4-6-------|
D|------------------7--------------------------7-----7-4---|
A|---------------------------------------------------------|
E|---------------------------------------------------------|

e|-------------------------------------------------------------|
B|--5-------------5-------------5------------------------------|
G|----7-6-----9-----7-6-----9-----7-6-----9---5-4--------------|
D|--------7/9-----------7/9-----------7/9---------7-5-4-3~~~---|
A|-------------------------------------------------------------|
E|-------------------------------------------------------------|


[Verse]

The Studio version of the song only has drums, bass and keyboards in the verse but live this is played.

e|------------------------|
B|------------------------|
G|------------------------|
D|------------------------|
A|--5--4--3--2--1b--0-x---|
E|------------------------|

This Stops At "I'm the slime oozin' out"


[Pre-Chorus]


e|-------------------------------------------------------------|
B|--5-------------5-------------5------------------------------|
G|----7-6-----9-----7-6-----9-----7-6-----9---5-4--------------|
D|--------7/9-----------7/9-----------7/9---------7-5-4-3~~~---|
A|-------------------------------------------------------------|
E|-------------------------------------------------------------|


[Chorus]

e|---------------------------------------------------------|
B|---------------------------------------------------------|
G|---------------------------------------------------------|
D|----2-4----2--------------------2-4----2-----------------|
A|--4------4----4-2-0--2--4-2---4------4----4-2-0-2-4-0----|
E|------------------------------------------------------2--|

e|---------------------------------------------------------|
B|---------------------------------------------------------|
G|---------------------------------------------------------|
D|----2-4----2--------------------2-4----2-----------------|
A|--4------4----4-2-0--2--4-2---4------4----4-2-0-2-4-0----|
E|------------------------------------------------------2--|

e|---------------------------------------------------------|
B|----5-7----5--------------------5-7----5-----------------|
G|--6------6----6-4----4--6-4---6------6---6-4---4-6-------|
D|------------------7--------------------------7-----7-4---|
A|---------------------------------------------------------|
E|---------------------------------------------------------|

e|---------------------------------------------------------|
B|----5-7----5--------------------5-7----5-----------------|
G|--6------6----6-4----4--6-4---6------6---6-4---4-6-------|
D|------------------7--------------------------7-----7-4---|
A|---------------------------------------------------------|
E|---------------------------------------------------------|


[Solo]

The solo is always improvised, try using the F# Minor Pentatonic


e|-----2h5p2---------------------------2h5/7\5-2------------------------|
B|-----------5-2-------------------<5>-----------5-2-------2------------|
G|--4b-----------4-2---2-----------<5>---------------4-2-----4-2--------|
D|-------------------4---4-2-------<5>-------------------4-------4------|
A|---------------------------4-3-2--------------------------------------|
E|----------------------------------------------------------------------|

Solo plays until fade out



************************************

| x  Dead note
| h  Hammer-on
| p  Pull-off
| b  Bend
| /  Slide up
| \  Slide down
| ~  Vibrato
| <> Harmonic

************************************
Suggest correction
Creating personal tab
Creating personal tab
You can edit any tab online and save it as your Personal.

You can edit, replace or remove any tab part or add personal notes – all changes will be seen only by you.

Personal tabs can be accessed anytime from any device, even offline.
Learn more »
Give kudos to tab author, rate the tab!
1 2 3 4 5
comments
print report bad tab
guest
You may want to rate the tab now too:
select rating
Wanna post a correction for this tab? Suggest correction