Oops, an error
Loading. Please wait.

Joes Garage bass

622 views 3 this week
no commentswrite comment
1 2 3 4 5
2 more votes to show rating
add to favorites
×
Save as Personal and add changes to this tab that will be seen only by you. Learn more ›
×
You can save this tab as Personal to edit and correct it or add notes. All changes will be seen only by you. Learn more »
launch autoscroll
font size
0
reset
guitar tuner
edit
Autoscroll
slow
fast
+/-
esc
set tempo
stop
Author
Difficulty
-------------------------------------------------------------------------------
                      Frank Zappa - Joe's Garage
-------------------------------------------------------------------------------
Tabbed by: Jacque
E-mail: Imbatman1312@gmail.com

Tuning: Standard

Intro

G|------------------------------|
D|------------------------------|
A|-14\--7---7-7---7-7--7-7------| 
E|--------------------------7---|

G|--------------------------------|
D|--------------------------------|
A|--7---7-7---7-7---7-7----7/14---|
E|--------------------------------|

Verse

G|------------------------------------|
D|--------/6--9-----------------------|
A|--7---7---------0----0---2--(2)/9---|
E|------------------------------------|

G|------------------------------------|
D|--------/6--9-----------------------|
A|--7---7---------0----0---2--(2)/9---|
E|------------------------------------|

G|------------------------------------|
D|--------/6--9-----------------------|
A|--7---7---------0----0---2--(2)/9---|
E|------------------------------------|

G|--------------------------------------------|
D|--------/6--9-------------------------------|
A|--7---7---------0---0-0-0--0-0---4---2--2---|
E|--------------------------------------------|

G|-----------------------------------------------------------------|
D|-----------------------------------------------------------------|
A|-----------------------------------------------------------------|
E|--5/7--7--7--7-7-7--5/7--7--7--7-7-7--5/7--7--7--7-7-7--5/7~-----|

G|----------------------------------------|
D|----------------------------------------|
A|--7---9h11--7---9h11--0---/4--\2---/9---|
E|----------------------------------------|


G|----------------------------------------|
D|----------------------------------------|
A|--7---9h11--7---9h11--0---/4--\2---/9---|
E|----------------------------------------|


G|----------------------------------------|
D|----------------------------------------|
A|--7---9h11--7---9h11--0---/4--\2---/9---|
E|----------------------------------------|


G|----------------------------------------|
D|----------------------------------------|
A|--7---9h11--7---9h11--0---/4--\2---/9---|
E|----------------------------------------|

G|-----------------------------------------------|
D|-----------------------------------------------|
A|------7----------------------------------------|
E|--0-------0------------/7---\5------/9---\7----|

G|----------------------------------------|
D|----------------------------------------|
A|--7---9h11--7---9h11--0---/4--\2---/9---|
E|----------------------------------------|

G|----------------------------------------|
D|----------------------------------------|
A|--7---9h11--7---9h11--0---/4--\2---/9---|
E|----------------------------------------|

G|----------------------------------------|
D|----------------------------------------|
A|--7---9h11--7---9h11--0---/4--\2---/9---|
E|----------------------------------------|

G|----------------------------------------|
D|----------------------------------------|
A|--7---9h11--7---9h11--0---/4--\2---/9---|
E|----------------------------------------|

G|-----------------------|
D|-----------------------|
A|--7---9h11--7---9h11---|
E|-----------------------|

"ONE MORE TIME" 

G|-----------------------------------------------|
D|-----------------------------------------------|
A|------7----------------------------------------|
E|--0-------0------------/7---\5------/9---\7----|

G|---------------------------------|
D|---------------------------------|
A|--7---6---4----------------------|
E|--------------7---5----/9--\7----|

G|---------------------------------|
D|---------------------------------|
A|--7---6---4----------------------|
E|--------------7---5----/9--\7----|

G|---------------------------------|
D|---------------------------------|
A|--7---6---4----------------------|
E|--------------7---5----/9--\7----|

G|-------------------------------------------|
D|-------------------------------------------|
A|--7---6---4-----------------------4--2-2---|
E|--------------7---5-5-5-5-5-5-5-5----------|

Saxophone Solo

G|------------------------------------------------------------------------------------------|
D|--------------------------------------2---4b--4--2-4--------------------------------------|
A|------------2-----------2---x--0--/4------------------2-2-2-2-2-2-2-2-2-2-2-2-2-2-2-2-----|
E|--x--0--/4-------0--/4--------------------------------------------------------------------|

Verse

G|---------------------------------|
D|---------------------------------|
A|--7---6---4----------------------|
E|--------------7---5----/9--\7----|

G|---------------------------------|
D|---------------------------------|
A|--7---6---4----------------------|
E|--------------7---5----/9--\7----|

G|---------------------------------|
D|---------------------------------|
A|--7---6---4----------------------|
E|--------------7---5----/9--\7----|

Dance Break

G|---------------------------------|
D|---------------------------------|
A|--7---6---4----------------------|
E|--------------7---5----/9--\7----|

G|---------------------------------|
D|---------------------------------|
A|--7---6---4----------------------|
E|--------------7---5----/9--\7----|

G|-----------------------------------|
D|-----------------------------------|
A|--7---6---4------------------------|
E|--------------7--5-5-5-5--9--7-7---|

Surf Rock Bridge

Pick quickly whilst sliding down from 19th fret

G|---------------------|
D|---------------------|
A|-19/-----------------|
E|---------------------|

No Bass Until

G|--------------------------|
D|--------------------------|
A|-0-0-0-0---0-0-0-4--2-2---|
E|--------------------------|

Verse

G|---------------------------------------------------|
D|---------------------------------------------------|
A|--7-7---7-7---7-7---7-7----------------------------|
E|-------------------------5-5---5-5---x/7-7---7-7---|

G|---------------------------------------------------|
D|---------------------------------------------------|
A|--7-7---7-7---7-7---7-7----------------------------|
E|-------------------------5-5---5-5---x/7-7---7-7---|

G|---------------------------------------------------|
D|---------------------------------------------------|
A|--7-7---7-7---7-7---7-7----------------------------|
E|-------------------------5-5---5-5---x/7-7---7-7---|

G|---------------------------------------------------|
D|---------------------------------------------------|
A|--7-7---7-7---7-7---7-7----------------------------|
E|-------------------------5-5---5-5---x/7-7---7-7---|

                          "So The Band Broke Up"

G|---------------------------------|
D|---------------------------------|
A|--7-7---7-7---7-7---7-7----------|
E|-------------------------5--5-5--|

Short Drum Fill

"And It Looks Like"

G|---------------|
D|---------------|
A|---------------|
E|--5-5--7--7----|

Short Drum Fill

"We Will Never Play Again"

G|-----------------|
D|-----------------|
A|--/7---/7---/7---|
E|-----0----0------|

"Guess you only get one chance in life
To play a song that goes like..."

No Bass

Verse

G|-----------------------------------------------------------------|
D|-----------------------------------------------------------------|
A|---------7--------------7----------------------------------------| Repeat To End 
E|-0-0-0-0--0-0-0-0-0-0-0---0-0-0-5-5-5-5-5-5-5-5-7-7-7-7-7-7-7-7--|


| /  slide up
| \  slide down
| h  hammer-on
| p  pull-off
| ~  vibrato
| +  harmonic
| x  Mute note
===============================================================================

            
            
Suggest correction
Creating personal tab
Creating personal tab
You can edit any tab online and save it as your Personal.

You can edit, replace or remove any tab part or add personal notes – all changes will be seen only by you.

Personal tabs can be accessed anytime from any device, even offline.
Learn more »
Give kudos to tab author, rate the tab!
1 2 3 4 5
comments
print report bad tab
guest
You may want to rate the tab now too:
select rating
Wanna post a correction for this tab? Suggest correction