Oops, an error
Loading. Please wait.

Muffin Man bass

version 1
version 1

Whole song

Interactive

5,062 views 1 this week
1 commentread comment
1 2 3 4 5
x 4
add to favorites
×
Save as Personal and add changes to this tab that will be seen only by you. Learn more ›
×
You can save this tab as Personal to edit and correct it or add notes. All changes will be seen only by you. Learn more »
launch autoscroll
font size
0
reset
guitar tuner
backing track
0:00
0:00
edit
Autoscroll
slow
fast
+/-
esc
set tempo
stop
Difficulty
this is my first bass tab but i think ive got it correct, but if theres any doubts just say

       |---------------------------------------------------|
       |---------------------------------------------------|
       |-------------------2----2--4--4/7\4----------------|
       |----2------2--4--4---------------------------------|

       |---------------------------------------------------|
       |---------------------------------------------------|
       |-------------------2---2-2-2--4--4/7\4-------------|
       |----2------2--4--4---------------------------------|

i think thats it but just repeat it over and over again

enjoy playing that

Ethan

            
            
Suggest correction
Creating personal tab
Creating personal tab
You can edit any tab online and save it as your Personal.

You can edit, replace or remove any tab part or add personal notes – all changes will be seen only by you.

Personal tabs can be accessed anytime from any device, even offline.
Learn more »
comments
print report bad tab
1 comment total.
+2 reply
Matt_Oneil 10 Jan 10, 2007 12:38 PM

This tab is incorrect. It hits the G and the C instead of playing the F# and B twice.

guest
Wanna post a correction for this tab? Suggest correction