Oops, an error
Loading. Please wait.

Packard Goose Tab

version 1
version 1

Whole song

  • Version tabbed from the Joe's Garage album. Added ... Show more

Interactive

31 views 3 this week
1 commentread comment
1 2 3 4 5
2 more votes to show rating
add to favorites
launch autoscroll
font size
0
reset
how to read this tab
guitar tuner
Autoscroll
slow
fast
+/-
esc
set tempo
stop
Help us to improve Ultimate-Guitar.com Take our survey!
×
Author
Difficulty
advanced
About this tab version
Version tabbed from the Joe's Garage album. Added marimba lines in intro and some chords done on keyboards. Was this info helpful? Yes No
[Intro]

e|----------------------------------------|
B|----------------------------------------|
G|----------------------------------------|
D|--x-x-x-x-x-x-x-x-2-2-0-2-4/5\4-2-0-----|
A|--x-x-x-x-x-x-x-x-----------------------|
E|--x-x-x-x-x-x-x-x-----------------------|

e|----------------------------------------|
B|----------------------------------------|
G|----------------------------------------|
D|--x-x-x-x-x-x-x-x-2-2-0-2-4/5\4-2-0-----|
A|--x-x-x-x-x-x-x-x-----------------------|
E|--x-x-x-x-x-x-x-x-----------------------|

e|----------------------------------------|
B|----------------------------------------|
G|----------------------------------------|
D|--x-x-x-x-x-x-x-x-2-2-0-2-4/5\4-2-0-----|
A|--x-x-x-x-x-x-x-x-----------------------|
E|--x-x-x-x-x-x-x-x-----------------------|

e|----------------------------------------|
B|----------------------------------------|
G|----------------------------------------|
D|--x-x-x-x-x-x-x-x-2-2-0-2-4/5\4-2-0-----|
A|--x-x-x-x-x-x-x-x-----------------------|
E|--x-x-x-x-x-x-x-x-----------------------|

[Verse]

e|----------------------------------------------|
B|----------------------------------------------|
G|-----------------------------------------4----|
D|-----------7--7-7-7--9-9-11-9---6--6-6---4----|
A|--7--7--7--5--5-5-5--7-7-9--7---4--4-4-0-2----|
E|--5--5--5-------------------------------------|

e|-------------------------------------------------------------|
B|-------------------------------------------------------------|
G|-----------------------------------6--9--6--9--6h7p6-4-4-4---|
D|-----------7-7-7-7-7--9-9-9-11-9-----------------------------|
A|--7--7--7--5-5-5-5-5--7-7-7-9--7-----------------------------|
E|--5--5--5----------------------------------------------------|

e|--------------------------------------------|
B|--------------------------------------------|
G|--------------------------6-----------------|
D|----------7-7-7-7-7-9-9-9-6--5-5-4-0-2~~----|
A|--7--7--7-5-5-5-5-5-7-7-7-4-----------------|
E|--5--5--5-----------------------------------|

e|-------------------|
B|-------------------|
G|-------------------|
D|------2------------|
A|--4-----4---2--2---|
E|-------------------|

e|----------------------------------------------|
B|----------------------------------------------|
G|-----------------------------------------4----|
D|-----------7--7-7-7--9-9-11-9---6--6-6---4----|
A|--7--7--7--5--5-5-5--7-7-9--7---4--4-4-0-2----|
E|--5--5--5-------------------------------------|

e|-------------------------------------------------------------|
B|-------------------------------------------------------------|
G|-----------------------------------6--9--6--9--6h7p6-4-4-4---|
D|-----------7-7-7-7-7--9-9-9-11-9-----------------------------|
A|--7--7--7--5-5-5-5-5--7-7-7-9--7-----------------------------|
E|--5--5--5----------------------------------------------------|

e|-----------------------------|
B|-----------------------------|
G|-----------------------------|
D|-----------7-7--5--4--0-2~---|
A|--7--7--7--5-5---------------|
E|--5--5--5--------------------|

[Chorus]

e|----------------------------------------------------------------|
B|----------------------------------------------------------------|
G|----------------------------------------------------------------|
D|-6--6---6-6--6---4--4---4-4--4---6--6---6-6--6---4--4---4-4--4--|
A|-4--4---4-4--4---2--2---2-2--2---4--4---4-4--4---2--2---2-2--2--|
E|----------------------------------------------------------------|

e|-------------------------------------------------|
B|-------------------------------------------------|
G|-------------------------------------------------|
D|-2---2-2-2---4---4-4-4---6---6-6-6---6---6-6-6---|
A|-0---0-0-0---2---2-2-2---4---4-4-4---4---4-4-4---|
E|-------------------------------------------------|

e|--------------------------------------------|
B|--------------------------------------------|
G|------------------------2----2--2----2--2---|
D|-4----4--4----4--4------2----2--2----2--2---|
A|-4----4--4----4--4------0----0--0----0--0---|
E|-2----2--2----2--2--------------------------|

e|--------------------------------------------|
B|--------------------------------------------|
G|------------------------2----2--2----2--2---|
D|-4----4--4----4--4------2----2--2----2--2---|
A|-4----4--4----4--4------0----0--0----0--0---|
E|-2----2--2----2--2--------------------------|

[Verse]

e|----------------------------------------|
B|----------------------------------------|
G|----------------------------------------|
D|--x-x-x-x-x-x-x-x-2-2-0-2-4/5\4-2-0-----|
A|--x-x-x-x-x-x-x-x-2-2-0-2-4/5\4-2-0-----|
E|--x-x-x-x-x-x-x-x-----------------------|

e|----------------------------------------|
B|----------------------------------------|
G|----------------------------------------|
D|--x-x-x-x-x-x-x-x-2-2-0-2-4/5\4-2-0-----|
A|--x-x-x-x-x-x-x-x-2-2-0-2-4/5\4-2-0-----|
E|--x-x-x-x-x-x-x-x-----------------------|

e|----------------------------------------------|
B|----------------------------------------------|
G|-----------------------------------------4----|
D|-----------7--7-7-7--9-9-11-9---6--6-6---4----|
A|--7--7--7--5--5-5-5--7-7-9--7---4--4-4-0-2----|
E|--5--5--5-------------------------------------|

e|-------------------------------------------------------------|
B|-------------------------------------------------------------|
G|-----------------------------------6--9--6--9--6h7p6-4-4-4---|
D|-----------7-7-7-7-7--9-9-9-11-9-----------------------------|
A|--7--7--7--5-5-5-5-5--7-7-7-9--7-----------------------------|
E|--5--5--5----------------------------------------------------|

e|--------------------------------------------|
B|--------------------------------------------|
G|--------------------------6-----------------|
D|----------7-7-7-7-7-9-9-9-6--5-5-4-0-2~~----|
A|--7--7--7-5-5-5-5-5-7-7-7-4-----------------|
E|--5--5--5-----------------------------------|

[Chorus]

e|----------------------------------------------------------------|
B|----------------------------------------------------------------|
G|----------------------------------------------------------------|
D|-6--6---6-6--6---4--4---4-4--4---6--6---6-6--6---4--4---4-4--4--|
A|-4--4---4-4--4---2--2---2-2--2---4--4---4-4--4---2--2---2-2--2--|
E|----------------------------------------------------------------|

e|-------------------------------------------------|
B|-------------------------------------------------|
G|-------------------------------------------------|
D|-2---2-2-2---4---4-4-4---6---6-6-6---6---6-6-6---|
A|-0---0-0-0---2---2-2-2---4---4-4-4---4---4-4-4---|
E|-------------------------------------------------|

e|--------------------------------------------|
B|--------------------------------------------|
G|------------------------2----2--2----2--2---|
D|-4----4--4----4--4------2----2--2----2--2---|
A|-4----4--4----4--4------0----0--0----0--0---|
E|-2----2--2----2--2--------------------------|

e|--------------------------------------------|
B|--------------------------------------------|
G|------------------------2----2--2----2--2---|
D|-4----4--4----4--4------2----2--2----2--2---|
A|-4----4--4----4--4------0----0--0----0--0---|
E|-2----2--2----2--2--------------------------|

[Bridge]

e|---------------------14-----------|
B|-------------12--14---------------|
G|-11--13--15--------------11--13---|
D|----------------------------------| Vamp Until Guitar Solo
A|----------------------------------|
E|----------------------------------|

[Guitar Solo]

e|--------------------------------------------------------|
B|--------------------------------------------------------|
G|--------------------------------------------------------|
D|---------------2----------------------------------------| Repeat Until 8:28
A|-------------------------------------------2------------|
E|-2--2------2-------0-0-0------0--0------0-----2--2--2---|

[Verse]

e|----------------------------------------|
B|----------------------------------------|
G|----------------------------------------|
D|--x-x-x-x-x-x-x-x-2-2-0-2-4/5\4-2-0-----|
A|--x-x-x-x-x-x-x-x-2-2-0-2-4/5\4-2-0-----|
E|--x-x-x-x-x-x-x-x-----------------------|

e|----------------------------------------|
B|----------------------------------------|
G|----------------------------------------|
D|--x-x-x-x-x-x-x-x-2-2-0-2-4/5\4-2-0-----|
A|--x-x-x-x-x-x-x-x-2-2-0-2-4/5\4-2-0-----|
E|--x-x-x-x-x-x-x-x-----------------------|

e|----------------------------------------------|
B|----------------------------------------------|
G|-----------------------------------------4----|
D|-----------7--7-7-7--9-9-11-9---6--6-6---4----|
A|--7--7--7--5--5-5-5--7-7-9--7---4--4-4-0-2----|
E|--5--5--5-------------------------------------|

e|-------------------------------------------------------------|
B|-------------------------------------------------------------|
G|-----------------------------------6--9--6--9--6h7p6-4-4-4---|
D|-----------7-7-7-7-7--9-9-9-11-9-----------------------------|
A|--7--7--7--5-5-5-5-5--7-7-7-9--7-----------------------------|
E|--5--5--5----------------------------------------------------|

e|-----------------------------|
B|-----------------------------|
G|-----------------------------|
D|--------7-7-7-7-9-9-9-6~~~---|
A|--7-7-7-5-5-5-5-7-7-7-4~~~---|
E|--5-5-5----------------------|

[Outro]

e|-------------------------------|
B|-------------------------------|
G|-------------------------------|
D|--9-9-9--6-6-6-----------------|
A|--7-7-7--4-4-4--7-7-7----9-9---|
E|----------------5-5-5--x-7-7---|

e|-------------------------------|
B|-------------------------------|
G|-------------------------------|
D|--9-9-9--6-6-6-----------------|
A|--7-7-7--4-4-4--7-7-7----9-9---|
E|----------------5-5-5--x-7-7---|

e|----------------------------------|
B|----------------------------------|
G|----------------------------------|
D|--9-9-9--6-6-6--------------------|
A|--7-7-7--4-4-4--7-7-7----11--9----|
E|----------------5-5-5--x-9---7----|

e|----------------------------------|
B|----------------------------------|
G|----------------------------------|
D|--9-9-9--6-6-6--------------------|
A|--7-7-7--4-4-4--7-7-7----11--9----|
E|----------------5-5-5--x-9---7----|

e|----------------------------------|
B|----------------------------------|
G|----------------------------------|
D|--9-9-9--6-6-6--------------------|
A|--7-7-7--4-4-4--7-7-7----11--9----|
E|----------------5-5-5--x-9---7----|

e|----------------------------------|
B|----------------------------------|
G|----------------------------------|
D|--9-9-9--6-6-6--------------------|
A|--7-7-7--4-4-4--7-7-7----11--9----|
E|----------------5-5-5--x-9---7----|

e|--14b-14-14b-14-14b-14-14brbrb--14b-14-14b-14-14b---|
B|----------------------------------------------------|
G|----------------------------------------------------|
D|----------------------------------------------------|
A|----------------------------------------------------|
E|----------------------------------------------------|

e|------------------------------------------|
B|------------------------------------------|
G|------------------------------------------|
D|------------------------------------------| Repeat to end
A|--7--6--4--2--7--6--4----7--6--4--2-------|
E|-------------------------------------0----|


************************************

| x   Dead note
| g   Grace note
| (n) Ghost note
| h   Hammer-on
| p   Pull-off
| r   Release
| >   Accented note
| t   Tapping
| b   Bend
| br  Bend release
| pb  Pre-bend
| pbr Pre-bend release
| /   Slide up
| \   Slide down
| ~   Vibrato
| s   Slap
| P   Pop
| PM  Palm mute
| TR  Trill
| N   Tremolo

************************************
Suggest correction
Give kudos to tab author, rate the tab!
1 2 3 4 5
comments
print report bad tab
1 comment total.
0 reply
edenvint 10 Nov 16, 2016 11:57 AM

nice tab, only thing in the bridge it alternates the begining 3 notes on the g string every time played through. ie. 11 13 15 the first and the 11 13 14 the second and keep switching.

guest
You may want to rate the tab now too:
select rating
Wanna post a correction for this tab? Suggest correction