Oops, an error
Loading. Please wait.

Sleep Dirt Tab

version 2
version 2

Whole song

Interactive

3,929 views 12 this week
3 commentsread comments
1 2 3 4 5
please rate
add to favorites
launch autoscroll
font size
0
reset
how to read this tab
guitar tuner
Tab Pro tools
  • play this tab
  • loop segment
  • change instrument
  • show fretboard
  • metronome
×
Best way to learn
"Sleep Dirt"
Autoscroll
slow
fast
+/-
esc
set tempo
stop
Contributor
Difficulty
advanced
-------------------------------------------------------------------------------
			     Sleep dirt (Frank Zappa)
-------------------------------------------------------------------------------
Tabbed by: Michel Aubry  (Montreal february 2008)
Email: kheang@sympatico.ca
Not an easy one to transcript and play. Enjoy!

Tuning: standard
  0:13 min
e|--------------------------2-2h3p2h0----------------------------------------|
B|--3-5-5-3-5/7--3-5-5-3-5------------3/6--3h63h6p3h03-3-3-3-5/6-------------|
G|-4------------4-----------------------------------------------5-5----------|
D|---------------------------------------------------------------------------|
A|---------------------------------------------------------------------------|
E|---------------------------------------------------------------------------|
				    0:33 min
e|-2h3p2--------------------1h3p1p0h1p0-----------------------9--/12---------|
B|-------5-5-/5-3-0-3--3/6--------------3h5p3p2h3p2p0h2--/12---7----/12-10---|
G|---------------------------------------------------------------------------|
D|---------------------------------------------------------------------------|
A|---------------------------------------------------------------------------|
E|---------------------------------------------------------------------------|

e|--------------10(12)----------------------------------2--------------------|
B|---------10p7-------------------------------5(6)3--3-5-5-3h-5--------------|
G|-11-9----------------9p7----------------4h2------4-------------------------|
D|-----12-----------------9-7------------------------------------------------|
A|---------------------------9-7--7--7-9-------------------------------------|
E|------------------------------10-10----------------------------------------|
  0:52 min
e|---------------------------------------------------------------------------|
B|---------------------------------------------------------------------------|
G|-4p3h4-4p3h4-4-3-4/6--6p4h6-6p4h6-6-4-6/7--7-6h7-9(10)9(10)9(10)7-9-7-9(10)|
D|---------------------------------------------------------------------------|
A|---------------------------------------------------------------------------|
E|---------------------------------------------------------------------------|

e|---------------------------------------------------------------------------|
B|--------------------------------------------------/10---------------7/10---|
G|-9(10)9(10)-7-9-7-9(10))))-9(10)9(10)p7-9(10)p7---/11----7h9(10)p7--8/11---|
D|-----------------------------------------------9------7h9---------9--------|
A|---------------------------------------------------------------------------|
E|---------------------------------------------------------------------------|
Sorry i had forgotten thoses notes here
e|---------------------------------------------------------------------------|
B|---------------------7/10--------------------------------------------------|
G|----7h9(10)p7---8/11-------------------------------------------------------|
D|-7h9---------9-------------------------------------------------------------|
A|---------------------------------------------------------------------------|
E|---------------------------------------------------------------------------|

					  1:22 min
e|---------------------------------------------------------------------------|
B|-----------------10--------------------------------------------------------|
G|--7h99(10)9-7-7-9--9-7-------------------9/10-7------------------------7---|
D|-9-----------9--------/9-7-----------7---------8-----7--------------7/8-8--|
A|--------------------------9-7--7--7-9-9-----------7h9-9-7--7---------------|
E|-----------------------------10-10-----------------------10-10-7-10--------|
			    1:32 min
e|---------------------------------------------------------------------------|
B|------------------------------------------5-6-7-5h6-5--3p2p0h2-------------|
G|---------7-2-----0------------------4-5-7----------7-----------------------|
D|-0h7h8h9----5-2-5-------------0-1/2----------------------------------------|
A|-------------------------0-1-3---------------------------------------------|
E|-------------------0-1-3------------------------------------------/13------|
  1:38 min
e|-5-3p2h5-3p2p0h2-3---------------------------------------------------------|
B|-------------------4-2-4-2h4p2--------5p3p2h5------------------------------|
G|------------------------------2h4-0h2---------4p2-4-2----------------------|
D|-----------------------------------------------------4-2h4-2---------------|
A|---------------------------------------------------------------------------|
E|---------------------------------------------------------------------------|
								   1:53 min
e|-5-3p2h5-3p2h3p2p0h2-2------------------------------------------------6----|
B|--------------------4-h4-2-2---------------------9-10-12-10-9-10-9p7/6--6--|
G|--------------------------4-4-2--------------------------------------------|
D|---------------------------------0h2-0h-4-2-0-0----------------------------|
A|---------------------------------------------2-2---------------------------|
E|---------------------------------------------------------------------------|

e|-----------------------------6---8(9)---------------------6----------------|
B|-9-10-12-10p9/7h9p7/5h7p5-5/6-6-6----9-10-12-10-9-10-9p7/6-6---------------|
G|---------------------------------------------------------------------------|
D|---------------------------------------------------------------------------|
A|---------------------------------------------------------------------------|
E|---------------------------------------------------------------------------|
					    2:07 min *fast picking 8 times
e|-----------------------------6-----------------------9--------12-----------|
B|-5h6p5h6p5-/6--5h6p5--5-5h6p5---*11p9------/12-----10---10-9-9-------------|
G|----------7---------7----------------10*---------11---11-------------------|
D|---------------------------------------------------------------------------|
A|---------------------------------------------------------------------------|
E|---------------------------------------------------------------------------|

e|-----------------------------7(8)p5-7--/7p5---5---5------------5---7-------|
B|-/9-77-99-7-9-77-7(8)7(8)7p5---------------5h7-5h7-5h7-5-7--5h7-5h7-5h7-5--|
G|---------------------------------------------------------------------------|
D|---------------------------------------------------------------------------|
A|---------------------------------------------------------------------------|
E|---------------------------------------------------------------------------|
		2:40 min
e|-------------7----------------------------------------1h3p1p0h1p0----------|
B|-7p5-5-6--5h7--5h7p5h7p5--5h7p5h7p5/7/5/6------------------------3h5p3/2/3-|
G|------------------------------------------77-5/7-5/77----------------------|
D|---------------------------------------------------------------------------|
A|---------------------------------------------------------------------------|
E|---------------------------------------------------------------------------|

*Index finger stays on 7 and major slids to 10 and slids back to 7 with a pull
e|--------------9--10-9-------*7/(8/9)/10/(8/9)/p7* (repeat 4 time)----------|
B|----7-9-10-9-7-------12-12-------------------------------------------------|
G|--77--------------------11-------------------------------------------------|
D|-9-------------------------------------------------------------------------|
A|---------------------------------------------------------------------------|
E|---------------------------------------------------------------------------|
   2:55 min  **(repeat that pattern 8 times)
e|--------9---9--------------------------------------------------------------|
B|-----**10-10-10**----------------------------------------------------------|
G|--------9----------------7-7-----------------------------------------------|
D|----------------------7-9-9-9----2-2---------------------------------------|
A|--------------------/9---------/4------------------------------------------|
E|---------------------------------------------------------------------------|

| ( )bend to
| /  slide up
| \  slide down
| h  hammer-on
| p  pull-off

===============================================================================
comments
We did not receive enough feedback on this tab! Please rate:
print report bad tab
1 2 3 4 5
3 comments total.
0 reply
aig91 wrote on February 29 2008, 05:37 pm

Yes! Finally a solo tab for this! I've been looking everywhere for the solo tab and I was dreading having to tab it for myself seeing as it is not an easy on to transcribe. Thanks a lot!

0 reply
cluster_one wrote on March 4 2008, 06:15 pm

i ve been waiting for years myself. Enjoy

0 reply
cluster_one wrote on March 4 2008, 06:18 pm

Please dont forget to rate it. Thanks

I want to post or [tab]
guest
You may want to rate the tab now too:
select rating
Please do not post tabs as comments. Select "correction" instead!