Oops, an error
Loading. Please wait.

Tell Me You Love Me Tab

4,158 views 15 this week
no commentswrite comment
1 2 3 4 5
accurate
x 3
add to favorites
launch autoscroll
font size
0
reset
how to read this tab
guitar tuner
Autoscroll
slow
fast
+/-
esc
set tempo
stop
Help us to improve Ultimate-Guitar.com Take our survey!
×
Author
Difficulty
intermediate
---------------------------------------------------------------------------
                        Tell Me You Love Me - Frank Zappa
                                     From:
                              "Chunga's Revenge"
---------------------------------------------------------------------------
Tabbed by: Kennezar (Kenneth Dale Harris IV)
Email: kenny4@kdharris.net

Tuning: Standard
Main Riff: 4 times
e|------------------------------------------|
B|------------------------------------------|
G|------------------------------------------|
D|------------------------2-------2---------|
A|--------------0-----2-2---2-3-4-----------|
E|---2-2-0-2--2---2-------------------------|
On the 4th time use this fill. (use a whammy or bend behind nut)
e|-----------------------------------|
B|-----------------------------------|
G|-----------------------------------|
D|-----------------------------------|
A|-----------------------------------|
E|-0~~~~~~~~~~~~~~~~~~~~~~~~---------|
On the 5th time play this fill. ("Girl! Girl! Girl!")
e|-----------------------------------------|
B|-----------------------------------------|
G|-----------------------------------------|
D|--2^3^2~~~--0~~~----2^3^2~~~--0~~~~~~----|
A|-----------------------------------------|
E|-----------------------------------------|
("I love you so hard now I'm crying for you.")
e|-------------------------------|
B|-------------------------------|
G|--------2-----2----------------|
D|--4-4-2---4-2---4-2-4~~~~~-----|
A|-------------------------------|
E|-------------------------------|
("Don't make me lose my pride.")
e|------|                         
B|-4~---|
G|-4~---|
D|-4~---|
A|-2~---|
E|------|
("I want to come inside.")
e|------|
B|-6~---|
G|-6~---|
D|-6~---|
A|-4~---|
E|------|
("and grab ahold of you.")
e|----------------------=----|
B|---------------------------|
G|--2^4-2^4--4-4-2-----------|
D|-----------------4~~~------|
A|---------------------------|
E|---------------------------|
"Tell me you love me!"
"Tell me you love me!"
"Like I want you to." 
e|-------------------------------|
B|-----------------------2~------|
G|-----------------------2~------|
D|-----------------------2~------|
A|-------------0---------0~------|
E|-2-2-0--2--2---2-2-0-2---------|   

"I want to feel it," 
"Give me your love now!" 

"Don't make me steal it."
"Don't make me steal it." 
e|-----------|--------------------|
B|-4~-----6~-|-11-14-16-18--------|
G|-4~-----6~-|-11-14-16-18--------|
D|-4~-----6~-|-11-14-16-18--------|
A|-2~-----4~-|-9--12-14-16--------|
E|-----------|--------------------|
The song repeats alot of riff's I just showed, but the ending.
Ending Riff:
e|-----------------------0-------------------0----------------------|
B|------------------------------------------------------------------|
G|-------------------2-----4^6-4^6^4-4p2p0-----4^6-4^6^4-4p2p0------|
D|------------2--4-2--4-------------------4--------------------4----|
A|-----2--4-2--4----------------------------------------------------|
E|-5-2--5-----------------------------------------------------------|

e|-------0------------------0-------------------|
B|----------------------------------------------|
G|-2-4----4^6-4^6^4-4p2p0-----4^6-4^6^4-4p2p0---|
D|------------------------4-------------------4-|
A|----------------------------------------------|
E|----------------------------------------------|

e|--------------------------------------|
B|------------2~---6-6--4-4--2----------|
G|------------2~---6-6--4-4--2----------|
D|------------2~---6-6--4-4--2----------|
A|------------0~---4-4--2-2--0----------|
E|-2-2-0-2--2---------------------------|

e|-----------------------0-------------------0----------------------|
B|------------------------------------------------------------------|
G|-------------------2-----4^6-4^6^4-4p2p0-----4^6-4^6^4-4p2p0------|
D|------------2--4-2--4-------------------4--------------------4----|
A|-----2--4-2--4----------------------------------------------------|
E|-5-2--5-----------------------------------------------------------|

e|-------0------------------0-------------------------------------|
B|----------------------------------------------------------------|
G|-2-4----4^6-4^6^4-4p2p0-----4^6-4^6^4-4p2p0---2-4---------------|
D|------------------------4-------------------4-----2-4-----------|
A|------------------------------------------------------2-0-------|
E|----------------------------------------------------------2~~~~~|


| /  slide up
| \  slide down
| h  hammer-on
| p  pull-off
| ~  vibrato
| +  harmonic
| x  Mute note
============================================================================
Suggest correction
What's this?
You can suggest a correction to this tab. Community and Mods will review your correction and vote to approve or reject it.
comments
We did not receive enough feedback on this tab! Please rate:
print report bad tab
1 2 3 4 5
guest
You may want to rate the tab now too:
select rating
Please do not post tabs as comments. Select "correction" instead!