Oops, an error
Loading. Please wait.

Torture Never Stops Tab

version 2
version 2

Whole song

8,505 views 27 this week
1 commentread comment
1 2 3 4 5
worth learning
x 7
add to favorites
launch autoscroll
font size
0
reset
how to read this tab
guitar tuner
Tab Pro tools
  • play this tab
  • loop segment
  • change instrument
  • show fretboard
  • metronome
Autoscroll
slow
fast
+/-
esc
set tempo
stop
Contributor
Difficulty
intermediate
	#_____________________________________________#
	|       Frank Zappa - Torture Never Stops     |
	| You Can't Do That on Stage Anymore, Vol. 4  |
	|            Tabbed by Paul Wilson            |
	#_____________________________________________#

Main Riff                 Harmonica or trumpet
                          or whatever

E||----------------------|--13b15b13------------|----------------------||
B||----------------------|----------13-13~------|----------------------||
G||--8--5~~~-------------|----------------------|----------------------||
D||---------8-5----------|----------------------|----------------------||
A||-------------8-6------|----------------------|----------------------||
E||-----------------8-6-8|----------------------|----------------------||

Theres way too much harmonica/trumpet or whatever to ta it all, but its around that shape.
For the rest of them use the Bb scale and improvise.
Here is the scale for those who don't know it
E||-------------------------------------------------------11--13--15--18--20---||
B||---------------------------------------------11--13-------------------------||
G||-------------------------------8--10--12------------------------------------||
D||----------------------8--10-------------------------------------------------||
A||----------6--8--10----------------------------------------------------------||
E||---6--8---------------------------------------------------------------------||

Tablature Legend
----------------
b Bend
~ small vibrato

*update*
updated it to include the scale to help others that dont know it so they dont have to 
for it and to try make it a bit more compleate and accurate. Also to fix a stupid mistake. 
are appreciated!
comments
print report bad tab
1 comment total.
0 reply
Pastafarian96 wrote on June 4 2014, 05:37 am

You need the other part:

e|-------------------------------------
B|-------------------------------------
G|-------------------------------------
D|-------------------------------------
A|----------------6--6--8--10-8--6-----
E|---8--6--8---8-----------------------

I want to post or [tab]
guest
You may want to rate the tab now too:
select rating
Please do not post tabs as comments. Select "correction" instead!