Oops, an error
Loading. Please wait.

Watermelon In Easter Hay tab

version 3
version 3

Whole song

Interactive

163 views 6 this week
no commentswrite comment
1 2 3 4 5
1 last vote to show rating
add to favorites
×
Save as Personal and add changes to this tab that will be seen only by you. Learn more ›
×
You can save this tab as Personal to edit and correct it or add notes. All changes will be seen only by you. Learn more »
launch autoscroll
font size
0
reset
how to read this tab
guitar tuner
backing track
0:00
0:00
edit
Autoscroll
slow
fast
+/-
esc
set tempo
stop
About this tab version
Its a complete FULL version of the song. Was this info helpful? Yes No
I hope you enjoy Playing this beautiful song as much as I do! Frank and Dweezil are legends.


[Intro]
    Slowly Q=52
    A             B/E
   4/4           5/4
    (Gtr 1)
    Q  Q  Q  Q    Q  Q  Q  Q   Q    (4x)
e|--------------|-------------------|
B|o-2-----------|--------------4---o|
G|-----2--------|----------4--------|
D|--------2-----|-------4-----------|
A|o-0-----------|----2-------------o|
E|-----------4--|-0-----------(0)---|
    W             W           +Q

 (Theme 1)
  A                           B/E
 4/4                         5/4
  (Gtr 2)
                               ~~~
  H         +E.  S T  S T E   +H.        H
e|-9b11======(9)r-7----------|--------------------|
B|--------------------10-9-9-|-(9)----------------|
G|---------------------------|--------------------|
D|---------------------------|--------------------|
A|---------------------------|--------------------|
E|---------------------------|--------------------|

(Gtr 1)
 | Q      Q   Q     Q           Q   Q  Q  Q   Q
e|---------------------------|--------------------|
B|-2-------------------------|----------------4---|
G|--------2------------------|------------4-------|
D|------------2--------------|---------4----------|
A|-0-------------------------|------2-------------|
E|------------------4--------|--0------------(0)--|
  W                            W            +Q

  A                           B/E
 4/4                         5/4
                                   |--3--|
  H         +E.  S T  S T E   +E  +S  S  S  a  S  S  E  +H       Q
e|-9b11======(9)r-7----------|----------------------------------------|
B|--------------------10-9-9-|-(9)-(9)-9-10-10h12s10s12-(12)----------|
G|---------------------------|----------------------------------------|
D|---------------------------|----------------------------------------|
A|---------------------------|----------------------------------------|
E|---------------------------|----------------------------------------|
|
 | Q      Q   Q     Q           Q               Q         Q   Q   Q
e|---------------------------|----------------------------------------|
B|-2-------------------------|------------------------------------4---|
G|--------2------------------|--------------------------------4-------|
D|------------2--------------|----------------------------4-----------|
A|-0-------------------------|------------------2---------------------|
E|------------------4--------|--0--------------------------------(0)--|
  W                            W                                +Q

  A                                       B/E
 4/4                                     5/4
                                                     |-3-|  |-3--|
  T    +T      +S  +E  +Q.     E  S S E   +H.        E E E  E  E E
e|-9b11r(9)b11==(9)-(9)-(9)r----7--------|--------------------------|
B|--------------------------------10-9-9-|-(9)--------9s7-7s=9------|
G|---------------------------------------|----------------------9-6-|
D|---------------------------------------|--------------------------|
A|---------------------------------------|--------------------------|
E|---------------------------------------|--------------------------|
|
 | Q                     Q    Q    Q        Q   Q  Q  Q      Q
e|---------------------------------------|--------------------------|
B|-2-------------------------------------|-------------------4------|
G|-----------------------2---------------|------------4-------------|
D|----------------------------2----------|---------4----------------|
A|-0-------------------------------------|------2-------------------|
E|---------------------------------4-----|--0---------------(0)-----|
  W                                        W               +Q

  A                                        B/E
 4/4                                      5/4
                                                     ~~~~~~~~~~~~~~
                    |-3--| |-----3-----|   |3|
  S S +T  T T T Q  +E  E E E   E +S  T T   S E   S S H.        +E  E
e|------------------------------------9-7-|---------------------------|
B|--------------------------7b9-9-(9)-----|-9-7b9r====================|
G|-6-------9-6---6--(6)-6-9---------------|-------9-9-9---------(9)---|
D|---9-(9)-----9--------------------------|---------------------------|
A|----------------------------------------|---------------------------|
E|----------------------------------------|---------------------------|
|
 | Q             Q   Q      Q               Q         Q   Q  Q   Q
e|----------------------------------------|---------------------------|
B|-2--------------------------------------|----------------------4----|
G|---------------2------------------------|------------------4--------|
D|-------------------2--------------------|---------------4-----------|
A|-0--------------------------------------|-----------2---------------|
E|--------------------------4-------------|-0-------------------(0)---|
  W                                        W                   +Q

 (Theme 1)
  A                              B/E
 4/4                            5/4
                                  ~~~
                         |3|
  H         +E  +T   S.  E S E   +H.        H
e|-9b11======(9)-(9)r-7---------|--------------------|
B|-----------------------10-9-9-|-(9)----------------|
G|------------------------------|--------------------|
D|------------------------------|--------------------|
A|------------------------------|--------------------|
E|------------------------------|--------------------|
|
 | Q      Q   Q           Q        Q   Q  Q  Q   Q
e|------------------------------|--------------------|
B|-2----------------------------|----------------4---|
G|--------2---------------------|------------4-------|
D|------------2-----------------|---------4----------|
A|-0----------------------------|------2-------------|
E|------------------------4-----|--0------------(0)--|
  W                               W            +Q

  A                         B/E
 4/4                       5/4
                                     ~
                    |3|      |--5--|
  H         +E   E  E S E   +E. S  S W
e|-9b11======(9)r-7--------|----------7-------------|
B|------------------10-9-9-|-(9)-9-10---------------|
G|-------------------------|------------------------|
D|-------------------------|------------------------|
A|-------------------------|------------------------|
E|-------------------------|------------------------|
|
 | Q      Q   Q      Q        Q       Q  Q  Q   Q
e|-------------------------|------------------------|
B|-2-----------------------|--------------------4---|
G|--------2----------------|----------------4-------|
D|------------2------------|-------------4----------|
A|-0-----------------------|----------2-------------|
E|-------------------4-----|--0----------------(0)--|
  W                          W                +Q

  A                                          B/E
 4/4                                        5/4
                                                        |-3-|  |-3--|
  T    +T      +S  +E  +Q   +E. S +E   S S   +H.        E E E  E  E E
e|-9b11r(9)b11==(9)-(9)-(9)r=(9)-7-(7)------|--------------------------|
B|-------------------------------------10-9-|-(9)--------9s7-7s=9------|
G|------------------------------------------|----------------------9-6-|
D|------------------------------------------|--------------------------|
A|------------------------------------------|--------------------------|
E|------------------------------------------|--------------------------|
|
 | Q                     Q    Q     Q          Q   Q  Q  Q      Q
e|------------------------------------------|--------------------------|
B|-2----------------------------------------|-------------------4------|
G|-----------------------2------------------|------------4-------------|
D|----------------------------2-------------|---------4----------------|
A|-0----------------------------------------|------2-------------------|
E|----------------------------------4-------|--0---------------(0)-----|
  W                                           W               +Q

  A                                B/E
 4/4                              5/4
                                                       ~~~
                       |---3---|   |---3---|
  S S T T S Q  +E  S S E   E S S   S S E S S +T  T E. +H.
e|--------------------------7-9-7-|---------------------------------|
B|----------------------7b9-------|-9-9p7-9-7-(7)-------------------|
G|-6---9-6---6--(6)-6-9-----------|---------------9-9--(9)----------|
D|---9-----9----------------------|---------------------------------|
A|--------------------------------|---------------------------------|
E|--------------------------------|---------------------------------|
|
 | Q         Q   Q      Q           Q          Q        Q   Q   Q
e|--------------------------------|---------------------------------|
B|-2------------------------------|-----------------------------4---|
G|-----------2--------------------|-------------------------4-------|
D|---------------2----------------|---------------------4-----------|
A|-0------------------------------|------------2--------------------|
E|----------------------4---------|-0--------------------------(0)--|
  W                                W                          +Q

 (Theme 2)
  A                      B/E
 4/4                    5/4
  |-3-|          |-3-|
  Q S S Q  +E  E E E E   a H     Q  H
e|----------------------|--------------------|
B|----------------------|--------------------|
G|-2-4s6-4--(4)S2S4-----|--------------------|
D|------------------6s4-|-4s6----------------|
A|----------------------|--------------------|
E|----------------------|--------------------|
|
 | Q     Q   Q    Q         Q  Q  Q  Q   Q
e|----------------------|--------------------|
B|-2--------------------|----------------4---|
G|-------2--------------|------------4-------|
D|-----------2----------|---------4----------|
A|-0--------------------|------2-------------|
E|----------------4-----|---0-----------(0)--|
  W                        W           +Q

  A                      B/E
 4/4                    5/4
                 |-3-|   |----3----|
  E S S Q  +E  E E E E   E T T T T E +W
e|----------------------|-----------------------------|
B|----------------------|-----------------------------|
G|-2-4s6-4--(4)S2S4-----|-----4-----------------------|
D|------------------6-4-|-6-6---6-4-6-(6)-------------|
A|----------------------|-----------------------------|
E|----------------------|-----------------------------|
|
 | Q     Q   Q    Q       Q            Q   Q  Q   Q
e|----------------------|-----------------------------|
B|-2--------------------|-------------------------4---|
G|-------2--------------|---------------------4-------|
D|-----------2----------|------------------4----------|
A|-0--------------------|--------------2--------------|
E|----------------4-----|-0----------------------(0)--|
  W                      W                      +Q

  A                        B/E
 4/4                      5/4
  |-3-|                              |-3-|  |-3--|
  Q S S Q  +E  E S S S S   H.        E E E  E  E E
e|------------------------|-------------------------|
B|------------------------|-------------------------|
G|-2-4s6-4--(4)S2S4-------|-------------------------|
D|--------------------6p4h|=6---------6S4-4S=6------|
A|------------------------|---------------------7-4-|
E|------------------------|-------------------------|
|
 | Q     Q   Q    Q         Q   Q  Q  Q      Q
e|------------------------|-------------------------|
B|-2----------------------|------------------4------|
G|-------2----------------|-----------4-------------|
D|-----------2------------|--------4----------------|
A|-0----------------------|-----2-------------------|
E|----------------4-------|-0---------------(0)-----|
  W                        W               +Q

  A                                    B/E
 4/4                                  5/4
                  |-3--|       |-3-|
  E T T T T +Q   +E  E E E   S T T T   E T T S H.         Q
e|------------------------------------|-------------------------|
B|------------------------------------|-------------------------|
G|----------------------------4-------|-------------------------|
D|------------------------4b6---4s6s4s|=2-6p4p2-2---------------|
A|---7-4---4-(4)--(4)-4-7-------------|-------------------------|
E|-7-----7----------------------------|-------------------------|
|
 | Q          Q    Q      Q             Q       Q   Q  Q   Q
e|------------------------------------|-------------------------|
B|-2----------------------------------|--------------------4----|
G|------------2-----------------------|----------------4--------|
D|-----------------2------------------|-------------4-----------|
A|-0----------------------------------|---------2---------------|
E|------------------------4-----------|-0-----------------(0)---|
  W                                    W                 +Q

  (Theme 1)
   A                         B/E
  4/4                       5/4
   H         +E   E  S S E   +W             Q
e|-9b11======(9)r-7--------|--------------------|
B|------------------10-9-9-|-(9)------------9---|
G|-------------------------|--------------------|
D|-------------------------|--------------------|
A|-------------------------|--------------------|
E|-------------------------|--------------------|
|
 | Q      Q   Q      Q        Q   Q  Q  Q   Q
e|-------------------------|--------------------|
B|-2-----------------------|----------------4---|
G|--------2----------------|------------4-------|
D|------------2------------|---------4----------|
A|-0-----------------------|------2-------------|
E|-------------------4-----|--0------------(0)--|
  W                          W            +Q

  A                             B/E
 4/4                           5/4
                                            ~~
                       |-3--|
  H         +E. +T   T E  E E   Q  +E. T  T H.
e|-9b11======(9)-(9)r-7--------|-------------7-----------|
B|------------------------10-9-|-9--(9)-9h10-------------|
G|-----------------------------|-------------------------|
D|-----------------------------|-------------------------|
A|-----------------------------|-------------------------|
E|-----------------------------|-------------------------|
|
 | Q      Q   Q         Q        Q   Q       Q   Q   Q
e|-----------------------------|-------------------------|
B|-2---------------------------|---------------------4---|
G|--------2--------------------|-----------------4-------|
D|------------2----------------|-------------4-----------|
A|-0---------------------------|-----2-------------------|
E|----------------------4------|-0------------------(0)--|
  W                             W                  +Q

  A                                           B/E
 4/4                                         5/4
                                   |3-|                  |-3-|  |-3--|
  T    +T      +S  +E  +Q   +E.  S T  S S E   +H.        E E E  E  E E
e|-9b11r(9)b11==(9)-(9)-(9)--(9)r-7----------|--------------------------|
B|------------------------------------10-9-9-|-(9)--------9s7-7s=9------|
G|-------------------------------------------|----------------------9-6-|
D|-------------------------------------------|--------------------------|
A|-------------------------------------------|--------------------------|
E|-------------------------------------------|--------------------------|
|
 | Q                     Q    Q     Q           Q   Q  Q  Q      Q
e|-------------------------------------------|--------------------------|
B|-2-----------------------------------------|-------------------4------|
G|-----------------------2-------------------|------------4-------------|
D|----------------------------2--------------|---------4----------------|
A|-0-----------------------------------------|------2-------------------|
E|----------------------------------4--------|--0---------------(0)-----|
  W                                            W               +Q

  A
 4/4
                    |-3--| |----5----|
  S S T T T T +Q   +E  E E S   S S S S
e|--------------------------------9-7---|
B|--------------------------7b9-9-----9-|
G|-6---9-6---6-(6)--(6)-6-9-------------|
D|---9-----9----------------------------|
A|--------------------------------------|
E|--------------------------------------|
|
 | Q            Q    Q      Q
e|--------------------------------------|
B|-2------------------------------------|
G|--------------2-----------------------|
D|-------------------2------------------|
A|-0------------------------------------|
E|--------------------------4-----------|
  W

  B/E
 5/4
                           ~~
  |---5---|
  S   T T T E T T S S T  T H.
e|---------------------------------------|
B|-7b9-9p7---7---------------------------|
G|---------6---6---6-9-9h11p9------------|
D|---------------9-----------------------|
A|---------------------------------------|
E|---------------------------------------|
|
 | Q           Q            Q   Q   Q
e|---------------------------------------|
B|----------------------------------4----|
G|------------------------------4--------|
D|--------------------------4------------|
A|-------------2-------------------------|
E|-0-------------------------------(0)---|
  W                               +Q

[Solo]
  A                             B/E
 4/4                           5/4
  (Gtr 3)
  |-3-|                 |-3-|
  E   S E +T  T E. E  E E E E   S S E +H      +S  S    s  S  Q
e|-----7-7-(7)-9----x\---------|-------------------5p===4---------|
B|-7b9--------------x\---------|-------------------5b7r(5)--------|
G|-------------------------6-6-|-6s4-4-(4)-----(4)----------------|
D|-----------------------------|----------------------------------|
A|-----------------------------|----------------------------------|
E|-----------------------------|----------------------------------|
|
 | (Gtr 1)
 | Q        Q       Q    Q       Q      Q   Q   Q             Q
e|-----------------------------|----------------------------------|
B|-2---------------------------|------------------------------4---|
G|----------2------------------|----------------4-----------------|
D|------------------2----------|------------4---------------------|
A|-0---------------------------|--------2-------------------------|
E|-----------------------4-----|-0---------------------------(0)--|
  W                             W                           +Q

  A
 4/4
   |---------6---------|                        |--------7--------|
   S     S  E  +T   T  S  T  S.    +S   S Q  E  T  T  T  T  T  T  T
e|------------------------16-14b16r(14)-12------12-------------------|
B|-------12-12-(12)-12-14--------------------------14s12h14-10h12p10-|
G|-11b13-------------------------------------------------------------|
D|-------------------------------------------------------------------|
A|-------------------------------------------------------------------|
E|-------------------------------------------------------------------|
|
 |  Q                      Q               Q  Q
e|-------------------------------------------------------------------|
B|--2----------------------------------------------------------------|
G|-------------------------2-----------------------------------------|
D|-----------------------------------------2-------------------------|
A|--0----------------------------------------------------------------|
E|--------------------------------------------4----------------------|
   W

  B/E
 5/4
   |-------7-------|  |----6-----|    |--6--|    |3|
   T  T  T  T T  T T  T T T T  T T  a E S E S a  E S E Q   T  T S S S
e|-11----------------------------------------------------------7-7------|
B|---------------------------------------------------------/9------9p7--|
G|----11h13p11-9-11-9-11-9-9-9----9-------------------------------------|
D|-------------------------9-9----9-----------------9-9-----------------|
A|-----------------------------11---12s9-7-9-7-9S11---------------------|
E|----------------------------------------------------------------------|
|
 |  Q                                  Q          Q     Q   Q
e|----------------------------------------------------------------------|
B|----------------------------------------------------------4-----------|
G|------------------------------------------------------4---------------|
D|------------------------------------------------4---------------------|
A|-------------------------------------2--------------------------------|
E|--0------------------------------------------------------(0)----------|
   W                                                      +Q

   A
  4/4
          |3|
    T T S S E S  S S S a S S S T T  a E E
e|----7-7------------7-9s7-9-9-7-9-12s9---|
B|-/9-----7s5---/9------------------------|
G|----------------------------------------|
D|----------------------------------------|
A|----------------------------------------|
E|----------------------------------------|
|
 |  Q         Q          Q            Q
e|----------------------------------------|
B|--2-------------------------------------|
G|------------2---------------------------|
D|-----------------------2----------------|
A|--0-------------------------------------|
E|------------------------------------4---|
   W

   B/E
  5/4
   S  S    T  S.     +S   T T S S a S. T T T S a S S T T T T  T  T T T a S S
e|---10b12---10b12==(10)r=====================================================|
B|----8b10----8b10===(8)r10p9p7---7h9\-7h9p7---7---5-----0--------------------|
G|------------------------------9------------6---4---6-4---4--6--4---4--------|
D|-----------------------------------------------------------------6---6s4-2--|
A|----------------------------------------------------------------------------|
E|----------------------------------------------------------------------------|
|
 | Q                  Q             Q            Q            Q
e|----------------------------------------------------------------------------|
B|------------------------------------------------------------4---------------|
G|-----------------------------------------------4----------------------------|
D|----------------------------------4-----------------------------------------|
A|--------------------2-------------------------------------------------------|
E|-0---------------------------------------------------------(0)--------------|
  W                                                         +Q

   A                                     B/E
  4/4                                   5/4
                                 |-3-|
   T T T T +E  +E  T T S E E S S S S S   H     S  Q.   S  Q
e|-----------------9-9-7-7-9-----------|---------19\----------|
B|-----------------------------x---9-7-|----------------------|
G|-------------------------------------|-9--------------------|
D|-6-4-2-4-(4)-(4)---------------------|----------------------|
A|-------------------------------------|----------------------|
E|-------------------------------------|----------------------|
|
 | Q            Q        Q   Q           Q  Q  Q     Q    Q
e|-------------------------------------|----------------------|
B|-2-----------------------------------|------------------4---|
G|--------------2----------------------|-------------4--------|
D|-----------------------2-------------|-------4--------------|
A|-0-----------------------------------|----2-----------------|
E|---------------------------4---------|-0---------------(0)--|
  W                                     W               +Q

  A
 4/4
                     |-3-|             |----5-----|  |-3--| |---3----|
   T  T S  T  T T T  T T T  T T +S  S  S  S  S  S S  S S  S T  T T T S
e|--------------------------------------0-(0)---------------------------|
B|-10-10-9-10-10-9---10-9---10s9-(9)-9s10-10s=9-10-9-10-9-10-9h10-9-----|
G|-----------------9------9-----------------------------------------9-9-|
D|----------------------------------------------------------------------|
A|----------------------------------------------------------------------|
E|----------------------------------------------------------------------|
|
 |  Q                 Q                 Q             Q
e|----------------------------------------------------------------------|
B|--2-------------------------------------------------------------------|
G|--------------------2-------------------------------------------------|
D|--------------------------------------2-------------------------------|
A|--0-------------------------------------------------------------------|
E|----------------------------------------------------4-----------------|
   W

  B/E                          A
 5/4                          4/4
                                                     |-3--|  |3-|
  E. T T Q   S  S E Q   E  E    T  T S T T  T  T T T T  T T +S  E S E. E  S  S
e|----------------------19\---|-----------0-----0-------------------------------|
B|------7s9s=14-12------------|-10-10-9---9-10-10-9---9-10-9-(9)-9-9s7--7s12-12-|
G|-9--9-----------------------|---------------------9---------------------------|
D|----------------------------|-------------------------------------------------|
A|----------------------------|-------------------------------------------------|
E|----------------------------|-------------------------------------------------|
|
 | Q      Q   Q      Q   Q       Q                Q                Q    Q
e|----------------------------|-------------------------------------------------|
B|-----------------------4----|--2----------------------------------------------|
G|-------------------4--------|-------------------2-----------------------------|
D|------------4---------------|------------------------------------2------------|
A|--------2-------------------|--0----------------------------------------------|
E|-0--------------------(0)---|-----------------------------------------4-------|
  W                    +Q       W

  B/E
 5/4
                              |--3--|         |------6-------|
   E S S  E S S  S S  E  +E   S  S  S  S   S  T  T  T  T  T  T
e|--------------------------------------------------------------|
B|-12s9-9s12s9-9s12-9s14-(14)--------------------------------17-|
G|----------------------------16-16-16-16--13-16-13-16-13----16-|
D|----------------------------------16--------------------16----|
A|--------------------------------------------------------------|
E|--------------------------------------------------------------|
|
 |  Q      Q      Q        Q            Q
e|--------------------------------------------------------------|
B|--------------------------------------4-----------------------|
G|-------------------------4------------------------------------|
D|----------------4---------------------------------------------|
A|---------2----------------------------------------------------|
E|--0----------------------------------(0)----------------------|
   W                                  +Q

  A
 4/4
      |------7-------|
   a  T  T  S  T  T  T  S  S  +E   T  T  S     E.  S S  S     E
e|---------------------------------------14b16-12-------14b16-12-|
B|-------------------------------------------------14------------|
G|---------------------------------------------------------------|
D|-18s16-14-16-16-14----14---------------------------------------|
A|-------------------16----16-(16)-14----------------------------|
E|------------------------------------15-------------------------|
|
 |     Q                        Q               Q     Q
e|---------------------------------------------------------------|
B|-----2---------------------------------------------------------|
G|------------------------------2--------------------------------|
D|----------------------------------------------2----------------|
A|-----0---------------------------------------------------------|
E|----------------------------------------------------4----------|
      W

  B/E
 5/4
                                  |---5----|  |----6-----|  |-----5-----|  |-----5-----|
  S  S    E  E    S  T  T  S. T E S  T  T  T  T  T T T T T  T   T T  T  T  T T  T  T X X
e|---14b16---14b16---12-------------------------------------------------------------------|
B|----------------------14-12--x-----14-17-14-14-12s9p7h9p7-------------------------------|
G|-----------------------------------------------------------9---9-------9----------------|
D|--------------------------------------------------------------11-9----11----------------|
A|-------------------------------------------------------------------11----11s9-12-11-9---|
E|--------------------------------------------------------------------------------------9-|
|
 | Q          Q             Q      Q                         Q
e|----------------------------------------------------------------------------------------|
B|-----------------------------------------------------------4----------------------------|
G|---------------------------------4------------------------------------------------------|
D|--------------------------4-------------------------------------------------------------|
A|------------2---------------------------------------------------------------------------|
E|-0--------------------------------------------------------(0)---------------------------|
  W                                                        +Q

   A
  4/4
   E. S E. S  a        T    +S. +S  S T     +S.  S  S
e|----------------------------------------------------|
B|----------------------------------------------------|
G|----------------------------------------------------|
D|-----------(x)pb9.5==9b10r(9)-(9)-x-9b9.5r(9)-------|
A|------7--9------------------------------------11-11-|
E|-7--9-----------------------------------------------|
|
 | Q    Q              Q              Q
e|----------------------------------------------------|
B|-2--------------------------------------------------|
G|------2---------------------------------------------|
D|---------------------2------------------------------|
A|-0--------------------------------------------------|
E|------------------------------------4---------------|
  W

  B/E
 5/4
                                                            |-3-| |-3-|
  T T T T T T T T T T T T T S T  T T T  T  +T  T S Q   T  T T T T T T T T T
e|---------------------------0--------------------------0----0h2h4p2-4p2p0---|
B|-9-9-7---9-7---7-7------------------------------------0--0-0-------------4-|
G|-------9-----9-----9-6-----6---------------------------------------------4-|
D|-----------------------9-9---9---------------------------------------------|
A|-------------------------------11s9-7-11-(11)s9-7-7------------------------|
E|---------------------------------------------------------------------------|
|
 | Q               Q              Q                 Q   Q
e|---------------------------------------------------------------------------|
B|------------------------------------------------------4--------------------|
G|--------------------------------------------------4------------------------|
D|--------------------------------4------------------------------------------|
A|-----------------2---------------------------------------------------------|
E|-0---------------------------------------------------(0)-------------------|
  W                                                   +Q

   A
  4/4
                  |-3-|
   a T S S a S. a T T T S +S  S E. S S S S T T
e|-------------------------------------0-0-0-2s=|
B|-4s5s4-4-4s5--4h5p4p0-4-(4)s2-2--4-4----------|
G|----------------------------------------------|
D|----------------------------------------------|
A|----------------------------------------------|
E|----------------------------------------------|
|
 |   Q            Q             Q    Q
e|----------------------------------------------|
B|---2------------------------------------------|
G|----------------2-----------------------------|
D|------------------------------2---------------|
A|---0------------------------------------------|
E|-----------------------------------4----------|
    W

  B/E
 5/4
            |---10:8-----| |------3------|                      |------7------|
  S.T T S. +E  T T T X X S S S S S T T T T S a T T S S  S  S  a T +T  T T T T T
e|-4s2s4s7--(7)-7p4p0-0h4-7-7-4-4s2-2-4-2-0-0-2h4-2-0-0-----0-^2-4-(4)-4-2-0---0--|
B|-------------------------------------------------------4--0-^5-------------0----|
G|--------------------------------------------------------------------------------|
D|--------------------------------------------------------------------------------|
A|--------------------------------------------------------------------------------|
E|--------------------------------------------------------------------------------|
|
 | Q         Q              Q               Q            Q
e|--------------------------------------------------------------------------------|
B|-------------------------------------------------------4------------------------|
G|------------------------------------------4-------------------------------------|
D|--------------------------4-----------------------------------------------------|
A|-----------2--------------------------------------------------------------------|
E|-0----------------------------------------------------(0)-----------------------|
  W                                                    +Q

  A
 4/4
                                                             ~~
            |--3--|     |3-|  |---5----|
  T S T S S S  S  S  S  T  S  S  T  T  T  T  T  S  T  T  T T S. T
e|-4-2-0-0-0---------14-14----16----------------------10---------0-|
B|-----0-0-----16-17-------17-17----------17s12-12-12----12-9s7----|
G|-------------------------------16-18-16-18-----------------------|
D|-----------------------------------------------------------------|
A|-----------------------------------------------------------------|
E|-----------------------------------------------------------------|
|
 | Q         Q                 Q                    Q
e|-----------------------------------------------------------------|
B|-2---------------------------------------------------------------|
G|-----------2-----------------------------------------------------|
D|-----------------------------2-----------------------------------|
A|-0---------------------------------------------------------------|
E|--------------------------------------------------4--------------|
  W

   B/E
  5/4
                             |3|
   T S   X X +E  +E. S S T T S T S S T T T T T T  E  S S
e|-0-2b4-0-2-(2)-(2)-0h2-2-0---0-4-----------------------|
B|-----------------------0---2---0-----------------------|
G|-----------------------------------4s1-----------------|
D|---------------------------------------4-2-------------|
A|-------------------------------------------4-2-----4-4-|
E|------------------------------------------------0------|
|
 | Q              Q    Q           Q              Q
e|-------------------------------------------------------|
B|------------------------------------------------4------|
G|---------------------------------4---------------------|
D|---------------------4---------------------------------|
A|----------------2--------------------------------------|
E|-0---------------------------------------------(0)-----|
  W                                             +Q

  A                     B/E
 4/4                   5/4
                                |-3-|             |-3-| |-3-|
  E. S E E E. a S E E   T T T T T T T T T +E. S E S S S S S S S S  S  a E S
e|----9s7-9----7s9-7-9-|-5-5s4---5s4-0-4-5-(5)-----7-7-7-7s4-4-4-2--2--2S4s2--|
B|---------------------|------------------------------------------------------|
G|---------------------|------------------------------------------------------|
D|---------------------|------------------------------------------------------|
A|-7-------------------|------------------------------------------------------|
E|----------9----------|------------------------------------------------------|
|
 | Q    Q   Q      Q     Q                  Q    Q       Q          Q
e|---------------------|------------------------------------------------------|
B|-2-------------------|--------------------------------------------4---------|
G|------2--------------|---------------------------------4--------------------|
D|----------2----------|-------------------------4----------------------------|
A|-0-------------------|--------------------2---------------------------------|
E|-----------------4---|-0-----------------------------------------(0)--------|
  W                     W                                         +Q

  A                                    B/E
 4/4                                  5/4
              TP    TP TPTP
                                                                  |---5----|
  S S S S +E. S    +E  E S S T T T T   E E +Q   S a E. a S S S S  S  S S S S
e|-2s0-0-0-(0)------------------------|------------4s5--4s5-4-5-4--5--4-5-4-5-|
B|--------------------------5-5-2-0-2-|-5-5-(5)----5s7--5s7-5-7-5--7--5-7-5-7-|
G|------------------------------------|----------------------------4--4-4-4-4-|
D|------------------------------------|---------------------------------------|
A|------------------------------------|---------------------------------------|
E|-------------4b9==(4)r4s0-----------|---------------------------------------|
|
 | Q        Q        Q    Q             Q    Q   Q        Q        Q
e|------------------------------------|---------------------------------------|
B|-2----------------------------------|----------------------------4----------|
G|----------2-------------------------|-------------------4-------------------|
D|-------------------2----------------|----------4----------------------------|
A|-0----------------------------------|------2--------------------------------|
E|------------------------4-----------|-0-------------------------(0)---------|
  W                                    W                         +Q

  (Theme 1)
   A                              B/E
  4/4                            5/4
   (Gtr 2)
   H         +E.  S S  S  +S. T   H.        H
e|-9b11======(9)r-7-------------|-------------------|
B|--------------------10-(10)-9-|-9-----------------|
G|------------------------------|-------------------|
D|------------------------------|-------------------|
A|------------------------------|-------------------|
E|------------------------------|-------------------|
|
 | (Gtr 3)
 | >
 | H          H                   W
e|-5----------------------------|-------------------|
B|-7----------------------------|-------------------|
G|-4----------------------------|-------------------|
D|------------------------------|-------------------|
A|------------------------------|-------------------|
E|------------------------------|-------------------|

  (Gtr 1)
 | Q      Q   Q     Q             Q   Q  Q  Q   Q
e|------------------------------|-------------------|
B|-2----------------------------|---------------4---|
G|--------2---------------------|-----------4-------|
D|------------2-----------------|--------4----------|
A|-0----------------------------|-----2-------------|
E|------------------4-----------|-0------------(0)--|
  W                              W            +Q

  A                         B/E
 4/4                       5/4
  (Gtr 2)
                                            ~~
                                    |--3--|
  H         +E.  S S  E S   Q  +E  +S  S  S H.
e|-9b11======(9)r-7--------|-----------------7-----------|
B|--------------------10-9-|-9--(9)-(9)-9h10-------------|
G|-------------------------|-----------------------------|
D|-------------------------|-----------------------------|
A|-------------------------|-----------------------------|
E|-------------------------|-----------------------------|
|
 | (Gtr 1)
 | Q      Q   Q     Q        Q   Q           Q   Q   Q
e|-------------------------|-----------------------------|
B|-2-----------------------|-------------------------4---|
G|--------2----------------|---------------------4-------|
D|------------2------------|-----------------4-----------|
A|-0-----------------------|-----2-----------------------|
E|------------------4------|-0----------------------(0)--|
  W                         W                      +Q

  A                                     B/E
 4/4                                   5/4
                                |-3-|    |--5--|         |-3-|  |-3--|
  T    +T      +S  +E  +H       E E E    S S S E +H      E E E  E  E E
e|-9b11r(9)b11==(9)-(9)-(9)r-------7---|--------------------------------|
B|-------------------------------------|-10-9-9-9-(9)-----9s7-7s=9------|
G|-------------------------------------|----------------------------9s6-|
D|-------------------------------------|--------------------------------|
A|-------------------------------------|--------------------------------|
E|-------------------------------------|--------------------------------|
|
 | Q                     Q    Q  Q        Q        Q   Q  Q      Q
e|-------------------------------------|--------------------------------|
B|-2-----------------------------------|-------------------------4------|
G|-----------------------2-------------|------------------4-------------|
D|----------------------------2--------|---------------4----------------|
A|-0-----------------------------------|-----------2--------------------|
E|-------------------------------4-----|--0---------------------(0)-----|
  W                                      W                     +Q

  A
 4/4
      |---5---|     |-3--| |----6----|
  S S T T T T T Q  +E  E E E   S S S S
e|--------------------------------9-7---|
B|--------------------------7b9-9-----9-|
G|-6-----9-6---6-6--(6)-6-9-------------|
D|---9-------9--------------------------|
A|--------------------------------------|
E|--------------------------------------|
|
 | Q             Q   Q      Q
e|--------------------------------------|
B|-2------------------------------------|
G|---------------2----------------------|
D|-------------------2------------------|
A|-0------------------------------------|
E|--------------------------4-----------|
  W

  B/E
 5/4
                     |---6---|
  T T T T T S. S T T T T T T S +H.
e|---------------------------------------------|
B|-9p7-9p7--------9p7-9p7----------------------|
G|---------9-6------------9-6-9-(9)------------|
D|---------------------------------------------|
A|---------------------------------------------|
E|---------------------------------------------|
|
 | Q            Q                Q   Q   Q
e|---------------------------------------------|
B|---------------------------------------4-----|
G|-----------------------------------4---------|
D|-------------------------------4-------------|
A|--------------2------------------------------|
E|-0------------------------------------(0)----|
  W                                    +Q

  (Theme 1)
   A                            B/E
  4/4                          5/4
   H         +E.  S S  S T S.   +H.        H
e|-9b11======(9)r-7-----------|--------------------|
B|--------------------10-9-9--|-(9)----------------|
G|----------------------------|--------------------|
D|----------------------------|--------------------|
A|----------------------------|--------------------|
E|----------------------------|--------------------|
|
 | Q      Q   Q     Q            Q   Q  Q  Q   Q
e|----------------------------|--------------------|
B|-2--------------------------|----------------4---|
G|--------2-------------------|------------4-------|
D|------------2---------------|---------4----------|
A|-0--------------------------|------2-------------|
E|------------------4---------|--0------------(0)--|
  W                             W            +Q

  A                            B/E
 4/4                          5/4
                                    |--3--|
  H         +E.  S S  S T S.   +E  +S  S  S W
e|-9b11======(9)r-7-----------|--------------7-------------|
B|--------------------10-9-9--|-(9)-(9)-9h10---------------|
G|----------------------------|----------------------------|
D|----------------------------|----------------------------|
A|----------------------------|----------------------------|
E|----------------------------|----------------------------|
|
 | Q      Q   Q     Q            Q           Q  Q  Q   Q
e|----------------------------|----------------------------|
B|-2--------------------------|------------------------4---|
G|--------2-------------------|--------------------4-------|
D|------------2---------------|-----------------4----------|
A|-0--------------------------|--------------2-------------|
E|------------------4---------|--0--------------------(0)--|
  W                             W                    +Q

  A                                        B/E
 4/4                                      5/4
                                   |-3-|              |-3-|  |-3--|
  T    +T      +S  +E  +Q   +E  E  E E E   +H.        E E E  E  E E
e|-9b11r(9)b11==(9)-(9)-(9)r=(9)-7--------|--------------------------|
B|---------------------------------10-9-9-|-(9)--------9s7-7s=9------|
G|----------------------------------------|----------------------9s6-|
D|----------------------------------------|--------------------------|
A|----------------------------------------|--------------------------|
E|----------------------------------------|--------------------------|
|
 | Q                     Q    Q     Q        Q   Q  Q  Q      Q
e|----------------------------------------|--------------------------|
B|-2--------------------------------------|-------------------4------|
G|-----------------------2----------------|------------4-------------|
D|----------------------------2-----------|---------4----------------|
A|-0--------------------------------------|------2-------------------|
E|----------------------------------4-----|--0---------------(0)-----|
  W                                         W               +Q

  A
 4/4
  |3|   |-3-|     |-3--| |---5---|
  E S S T T T Q  +E  E E E   S S S
e|------------------------------9-7-|
B|------------------------7b9-9-----|
G|-6-----9-6---6--(6)-6-9-----------|
D|---9-------9----------------------|
A|----------------------------------|
E|----------------------------------|
|
 | Q           Q   Q      Q
e|----------------------------------|
B|-2--------------------------------|
G|-------------2--------------------|
D|-----------------2----------------|
A|-0--------------------------------|
E|------------------------4---------|
  W

  B/E
 5/4
  |-----3-----|   |-3-| |-5-|
  E S   +S    E S T T T S T S S   T T +E  +H
e|---------------------------------------------------|
B|-9-7b9r(7)b9r================7b9-7-----------------|
G|-------------6-9-6-6---9-6---------9-(9)-(9)-------|
D|---------------------9-----9-----------------------|
A|---------------------------------------------------|
E|---------------------------------------------------|
|
 | Q             Q             Q            Q    Q
e|---------------------------------------------------|
B|-----------------------------------------------4---|
G|------------------------------------------4--------|
D|-----------------------------4---------------------|
A|---------------2-----------------------------------|
E|-0--------------------------------------------(0)--|
  W                                            +Q

 (Theme 2)
  A                         B/E
 4/4                       5/4
                  |--3--|
  E S S Q.    E a E a E E   W            Q
e|-------------------------|------------------|
B|-------------------------|------------------|
G|-2-4s6-4-----2-2s4-------|------------------|
D|-------------------4s6-4-|-6----------------|
A|-------------------------|------------------|
E|-------------------------|------------------|
|
 | Q     Q   Q     Q         Q  Q  Q  Q   Q
e|-------------------------|------------------|
B|-2-----------------------|--------------4---|
G|-------2-----------------|----------4-------|
D|-----------2-------------|-------4----------|
A|-0-----------------------|----2-------------|
E|-----------------4-------|-0-----------(0)--|
  W                         W           +Q

  A                         B/E
 4/4                       5/4
                  |--3--|   |----3----|
  E S S Q.    E a E a E E   E E T T T T +W
e|-------------------------|-----------------------------|
B|-------------------------|-----------------------------|
G|-2-4s6s4-----2-2s4-------|-----4-----------------------|
D|-------------------4s6-4-|-6-6---6-4-6-(6)-------------|
A|-------------------------|-----------------------------|
E|-------------------------|-----------------------------|
|
 | Q     Q   Q     Q         Q            Q   Q  Q   Q
e|-------------------------|-----------------------------|
B|-2-----------------------|-------------------------4---|
G|-------2-----------------|---------------------4-------|
D|-----------2-------------|------------------4----------|
A|-0-----------------------|--------------2--------------|
E|-----------------4-------|-0----------------------(0)--|
  W                         W                      +Q

  A                           B/E
 4/4                         5/4
                  |---3---|                 |-3-|  |-3--|
  E S S Q.    E a E a E a E   a H     +E. S E E E  E  E E
e|---------------------------|-----------------------------|
B|---------------------------|-----------------------------|
G|-2-4s6s4-----2-2s4---------|-----------------------------|
D|-------------------4s6-2s4-|-4s6-----(6)-2s6-4-4--6--2---|
A|---------------------------|---------------------------4-|
E|---------------------------|-----------------------------|
|
 | Q     Q   Q     Q             Q  Q   Q    Q      Q
e|---------------------------|-----------------------------|
B|-2-------------------------|----------------------4------|
G|-------2-------------------|---------------4-------------|
D|-----------2---------------|----------4------------------|
A|-0-------------------------|------2----------------------|
E|-----------------4---------|---0-----------------(0)-----|
  W                             W                 +Q

  A                                     B/E
 4/4                                   5/4
  |-3-| |-3-|        |-3--|     |-3-|   |------3------|
  E E E T T T S +E  +E  E E a E S S S   S S T T T T T S. +W
e|-------------------------------------|----------------------------------|
B|-------------------------------------|----------------------------------|
G|-------------------------------------|----------------------------------|
D|-------2-----------------2-4s6-4-2---|-4-2-4-2-4-2---2--(2)-------------|
A|-4-2-4---4-2-4-(4)-(4)-4-------------|-------------4--------------------|
E|-------------------------------------|----------------------------------|
|
 | Q     Q            Q        Q         Q                 Q   Q  Q   Q
e|-------------------------------------|----------------------------------|
B|-2-----------------------------------|------------------------------4---|
G|-------2-----------------------------|--------------------------4-------|
D|--------------------2----------------|-----------------------4----------|
A|-0-----------------------------------|-------------------2--------------|
E|-----------------------------4-------|-0---------------------------(0)--|
  W                                     W                           +Q

 (Theme 1)
  A                         B/E
 4/4                       5/4
             |-3-| |-3--|
  H         +Q   E E  E E   W            Q
e|-9b11======(9)r-7--------|------------------|
B|--------------------10-9-|-9----------------|
G|-------------------------|------------------|
D|-------------------------|------------------|
A|-------------------------|------------------|
E|-------------------------|------------------|
|
 | Q      Q   Q     Q        Q  Q  Q  Q   Q
e|-------------------------|------------------|
B|-2-----------------------|--------------4---|
G|--------2----------------|----------4-------|
D|------------2------------|-------4----------|
A|-0-----------------------|----2-------------|
E|------------------4------|-0-----------(0)--|
  W                         W           +Q

  A                         B/E
 4/4                       5/4
             |-3-|              |--3--|
  H         +Q   E S  E S   Q  +E  E  E H.
e|-9b11======(9)r-7--------|-------------7-----------|
B|--------------------10-9-|-9--(9)-9-10-------------|
G|-------------------------|-------------------------|
D|-------------------------|-------------------------|
A|-------------------------|-------------------------|
E|-------------------------|-------------------------|
|
 | Q      Q   Q     Q        Q   Q       Q   Q   Q
e|-------------------------|-------------------------|
B|-2-----------------------|---------------------4---|
G|--------2----------------|-----------------4-------|
D|------------2------------|-------------4-----------|
A|-0-----------------------|-----2-------------------|
E|------------------4------|-0------------------(0)--|
  W                         W                  +Q

  A                         B/E
 4/4                       5/4
                                      |-3-|  |-3--|
  H         +E.  S S  E S   H.        E E E  E  E E
e|-9b11======(9)r-7--------|-------------------------|
B|--------------------10-9-|-9---------9s7-7s=9------|
G|-------------------------|---------------------9-6-|
D|-------------------------|-------------------------|
A|-------------------------|-------------------------|
E|-------------------------|-------------------------|
|
 | Q      Q   Q     Q        Q   Q  Q  Q      Q
e|-------------------------|-------------------------|
B|-2-----------------------|------------------4------|
G|--------2----------------|-----------4-------------|
D|------------2------------|--------4----------------|
A|-0-----------------------|-----2-------------------|
E|------------------4------|-0---------------(0)-----|
  W                         W               +Q

  A                               B/E
 4/4                             5/4
         |-3--| |------3------|
  H     +Q  S S E E    T  T T T   T    S. S S W
e|-------------------------------|---------------------------|
B|-----------------7b9==7r-7-----|-7pb9-7--------------------|
G|-6-----(6)-6-6-9-----------9-6-|------8--9-9-9-------------|
D|-------------------------------|---------------------------|
A|-------------------------------|---------------------------|
E|-------------------------------|---------------------------|
|
 | Q  Q   Q      Q                 Q           Q  Q  Q   Q
e|-------------------------------|---------------------------|
B|-2-----------------------------|-----------------------4---|
G|----2--------------------------|-------------------4-------|
D|--------2----------------------|----------------4----------|
A|-0-----------------------------|-------------2-------------|
E|---------------4---------------|-0--------------------(0)--|
  W                               W                    +Q

[Outro]
   A                B/E
  4/4              5/4
                     ~~~
   H     Q  a E E    H.        +E  E  E  T T S
e|----------------|----------------------------|
B|----------------|-^0---------(0)---^4--------|
G|----------------|-^1---------(1)-1-^4--4-0-4-|
D|----------------|-^2---------(2)---^4--4---4-|
A|----------------|-^2---------(2)-------------|
E|----------2s4s2-|-^0---------(0)-------------|
|
 | Q  Q  Q    Q      Q   Q  Q   Q     Q
e|----------------|----------------------------|
B|-2--------------|-------------------4--------|
G|----2-----------|-------------4--------------|
D|-------2--------|---------4------------------|
A|-0--------------|------2---------------------|
E|------------4---|--0---------------(0)-------|
  W                 W               +Q

   A                 B/E
  4/4               5/4
   ~~
   H.        a E E    H.        Q   E  T T S
e|-----------------|-------------------------|
B|-----------------|-^0----------------------|
G|-2---------------|-^1------------^4--------|
D|-----------------|-^2------------^4--4-6-4-|
A|-----------------|-^2------------^0--------|
E|-----------2s4s2-|-^0----------------------|
|
 | Q   Q  Q    Q      Q   Q  Q  Q   Q
e|-----------------|-------------------------|
B|-2---------------|----------------4--------|
G|-----2-----------|------------4------------|
D|--------2--------|---------4---------------|
A|-0---------------|------2------------------|
E|-------------4---|--0------------(0)-------|
  W                  W            +Q

   A               B/E
  4/4             5/4
   H.        E E   W            E  T T S
e|---------------|-----------------------|
B|---------------|-0------------4--------|
G|---------------|-1------------4--4h6p4-|
D|-2-------------|-2------------4--------|
A|---------------|-2---------------------|
E|-----------2s4s|=0---------------------|
|
 | Q   Q  Q  Q     Q  Q  Q  Q   Q
e|---------------|-----------------------|
B|-2-------------|--------------4--------|
G|-----2---------|----------4------------|
D|--------2------|-------4---------------|
A|-0-------------|----2------------------|
E|-----------4---|-0-----------(0)-------|
  W               W           +Q

   A                 B/E
  4/4               5/4
    H.        a Q    W           +Q
e|-----------------|------------------*|
B|-----------------|-0-----------(0)--*|
G|-^2--------------|-1-----------(1)--*|
D|-^2--------------|-2-----------(2)--*|
A|-^0--------------|-2-----------(2)--*|
E|------------2s4--|-0-----------(0)--*|
|
 |  Q   Q  Q    Q    Q  Q  Q  Q   Q
e|-----------------|------------------*|
B|--2--------------|--------------4---*|
G|------2----------|----------4-------*|
D|---------2-------|-------4----------*|
A|--0--------------|----2-------------*|
E|--------------4--|-0-----------(0)--*|
   W                W           +Q


************************************


| h   - hammer-on
| p   - pull-off
| b   - bend
| pb  - pre-bend
| r   - bend release (if no number after the r, then release immediately)
| /\  - slide into or out of (from/to "nowhere")
| s   - legato slide
| S   - shift slide
| - natural harmonic
|[n]  - artificial harmonic
|n(n) - tapped harmonic
| ~   - vibrato
| tr  - trill
| T   - tap
| TP  - trem. picking
| PM  - palm muting
|\n/  - tremolo bar dip; n = amount to dip
| \n  - tremolo bar down
| n/  - tremolo bar up
|/n\  - tremolo bar inverted dip
| =   - hold bend; also acts as connecting device for hammers/pulls
| <> - volume swell (louder/softer)
| x   - on rhythm slash represents muted slash
| o   - on rhythm slash represents single note slash
| W - whole
| H - half
| Q - quarter
| E - 8th
| S - 16th
| T - 32nd
| X - 64th
| a - acciaccatura


 
************************************

            
            
Suggest correction
Creating personal tab
Creating personal tab
You can edit any tab online and save it as your Personal.

You can edit, replace or remove any tab part or add personal notes – all changes will be seen only by you.

Personal tabs can be accessed anytime from any device, even offline.
Learn more »
Give kudos to tab author, rate the tab!
1 2 3 4 5
comments
print report bad tab
guest
You may want to rate the tab now too:
select rating
Wanna post a correction for this tab? Suggest correction