Oops, an error
Loading. Please wait.

Who Needs The Peace Corps bass

19 views 1 this week
no commentswrite comment
1 2 3 4 5
3 more votes to show rating
add to favorites
×
Save as Personal and add changes to this tab that will be seen only by you. Learn more ›
×
You can save this tab as Personal to edit and correct it or add notes. All changes will be seen only by you. Learn more »
launch autoscroll
font size
0
reset
guitar tuner
edit
Autoscroll
slow
fast
+/-
esc
set tempo
stop
Frank Zappa & Mother of Invention - Who Needs the Peace Corps?
from We're Only in it for the Money (1968)

Tabbed by Leo Chiurco

[Intro]
G|-------------------------------------------------|-------------------------------------------------|
D|--10p8-----8--8-----------8-----7--------------x-|--10p8-----8--8-----------8-----7--------------x-|
A|---------------------8-8--------------10---------|---------------------8-8--------------10---------|
E|-------------------------------------------------|-------------------------------------------------|
    1  +  +  +  2  +  +  +  3  +  +  +  4  +  +  +    1  +  +  +  2  +  +  +  3  +  +  +  4  +  +  + 

G|-------------------------------------------------|-------------------------------------------------|
D|--10p8-----8--8-----------8-----7--------------x-|--10p8-----8--8-----------8-----7-----8-----9----|
A|---------------------8-8--------------10---------|---------------------8-8-------------------------|
E|-------------------------------------------------|-------------------------------------------------|
    1  +  +  +  2  +  +  +  3  +  +  +  4  +  +  +    1  +  +  +  2  +  +  +  3  +  +  +  4  +  +  + 

[Verse 1] "What's there to live for? ..."
G|---------------------------------|---------------------------------|
D|-10------10----x-10--------------|-------------------------8---9---|
A|-------------------------x---8---|-9-------9-----x-9-9-------------|
E|---------------------------------|---------------------------------|
   1 + + + 2 + + + 3 + + + 4 + + +   1 + + + 2 + + + 3 + + + 4 + + +

G|---------------------------------|---------------------------------|
D|-10------10----x-10--------------|---------------------------------|
A|-------------------------7---8---|-9-------9-----x-9-9-----8-------|
E|---------------------------------|---------------------------------|
   1 + + + 2 + + + 3 + + + 4 + + +   1 + + + 2 + + + 3 + + + 4 + + +

G|---------------------------------|-------x-9-----------------------|
D|---------------------------------|-------------9---7-----0-5---6---|
A|-7-----x-7---8---9-----9-9---8---|-5-------------------------------|
E|---------------------------------|---------------------------------|
   1 + + + 2 + + + 3 + + + 4 + + +   1 + + + 2 + + + 3 + + + 4 + + +

G|---------------------------------|-------------------------9-------|
D|-7-------------------------------|-------------------7---------8---|
A|---------------------------------|---------------------------------|
E|---------------------------------|---------------------------------|
   1 + + + 2 + + + 3 + + + 4 + + +   1 + + + 2 + + + 3 + + + 4 + + +

[Verse 2] "Walked past the wig store ..."
G|---------------------------------|---------------------------------|
D|-10------10----x-10--10----------|-------------------------8---9---|
A|-------------------------x---8---|-9-------9-----x-9-9-------------|
E|---------------------------------|---------------------------------|
   1 + + + 2 + + + 3 + + + 4 + + +   1 + + + 2 + + + 3 + + + 4 + + +

G|---------------------------------|---------------------------------|
D|-10------10----x-10-10-----------|---------------------------------|
A|-------------------------7---8---|-9-------9-----x-9-9-----9-----x-|
E|---------------------------------|---------------------------------|
   1 + + + 2 + + + 3 + + + 4 + + +   1 + + + 2 + + + 3 + + + 4 + + +

G|---------------------------------|-------x-9-----------------------|
D|---------------------------------|-------------9---7-----x-5---6---|
A|-7-------7---8---9-------9---8---|-5-------------------------------|
E|---------------------------------|---------------------------------|
   1 + + + 2 + + + 3 + + + 4 + + +   1 + + + 2 + + + 3 + + + 4 + + +

G|---------------------------------|-------------------------9-------|
D|-7-------------------------------|-------------------7-7-----------|
A|---------------------------------|-----------------------------7---| (x2)
E|---------------------------------|---------------------------------|
   1 + + + 2 + + + 3 + + + 4 + + +   1 + + + 2 + + + 3 + + + 4 + + +

G|---------------------------------|---------------------------------|
D|-7-------------------------------|---------------------------------|
A|---------------------------------|---------------------------------|
E|---------------------------------|---------------------------------|
   1 + + + 2 + + + 3 + + + 4 + + +   1 + + + 2 + + + 3 + + + 4 + + +

G|---------------------------------|---------------------------------|
D|-7---------------10------9-7-----|-7---------------10------9-7-----|
A|---------7-------------------10--|---------7-------------------10--|
E|---------------------------------|---------------------------------|
   1 + + + 2 + + + 3 + + + 4 + + +   1 + + + 2 + + + 3 + + + 4 + + +

[Chorus 1] "Every town must have a place ..."
G|---------------------------------|---------------------------------|
D|---------------------------------|---------------------------------|
A|-8-------8-----------------------|---------------------------------|
E|-----------------10------10------|-8-------8-------7-------7-------|
   1 + + + 2 + + + 3 + + + 4 + + +   1 + + + 2 + + + 3 + + + 4 + + +

G|---------------------------------|---------------------------------|
D|---------------------------------|---------------------------------|
A|-8-------8-----------------------|---------------------------------|
E|-----------------10------10------|-8-------8-------7-------7/------|
   1 + + + 2 + + + 3 + + + 4 + + +   1 + + + 2 + + + 3 + + + 4 + + +

G|---------------------------------|---------------------------------|
D|---------------------------------|-10--------------9-------10------|
A|-12--------------10--------------|---------------------------------|
E|---------------------------------|---------------------------------|
   1 + + + 2 + + + 3 + + + 4 + + +   1 + + + 2 + + + 3 + + + 4 + + +

G|---------------------------------|---------------------------------|
D|-9-----------7-5-7---------------|-------------------------7/------|
A|---------------------------------|---------------------------------|
E|---------------------------------|---------------------------------|
   1 + + + 2 + + + 3 + + + 4 + + +   1 + + + 2 + + + 3 + + + 4 + + +

[Verse 3] "How I love ya ..."
G|-------------------------------------------------|-------------------------------------------------|
D|--10-------10-10-------x--10---------------------|--------------------------------------8-----9----|
A|--------------------------------------x-----8----|--9-----------9--------x--9-----9----------------|
E|-------------------------------------------------|-------------------------------------------------|
    1  +  +  +  2  +  +  +  3  +  +  +  4  +  +  +    1  +  +  +  2  +  +  +  3  +  +  +  4  +  +  + 

G|---------------------------------|---------------------------------|
D|-10------10----x-10--10----------|-----------------5---------------|
A|-----------------------------8---|-5-----------5---------------5---|
E|---------------------------------|---------------------------------|
   1 + + + 2 + + + 3 + + + 4 + + +   1 + + + 2 + + + 3 + + + 4 + + +

G|---------------------------------|---------------------------------|
D|-4-------------------------------|---------------------------------|
A|---------------------------------|---------------------------------|
E|---------------------------------|---------------------------------|
   1 + + + 2 + + + 3 + + + 4 + + +   1 + + + 2 + + + 3 + + + 4 + + +

[Chorus 2] "Every town must have a place ..."
G|-------------------------------------------------|-------------------------------------------------|
D|-------------------------------------------------|-------------------------------------------------|
A|--8--------8--8----------------------------------|-------------------------------------------------|
E|--------------------------10-------10-10---------|--8--------8--8-----------7-----------7-----5----|
    1  +  +  +  2  +  +  +  3  +  +  +  4  +  +  +    1  +  +  +  2  +  +  +  3  +  +  +  4  +  +  + 

G|---------------------------------|---------------------------------|
D|---------------------------------|---------------------------------|
A|-8---8---8-----------------------|---------------------------------|
E|-----------------10--10--10------|-8---8---8-------7-------/-------|
   1 + + + 2 + + + 3 + + + 4 + + +   1 + + + 2 + + + 3 + + + 4 + + +

G|---------------------------------|---------------------------------|
D|---------------------------------|-10--------------9-------10------|
A|-12--------------10--------------|---------------------------------|
E|---------------------------------|---------------------------------|
   1 + + + 2 + + + 3 + + + 4 + + +   1 + + + 2 + + + 3 + + + 4 + + +

G|---------------------------------|---------------------------------|
D|-9-------------5-7---------------|-----------------------------7/--|
A|---------------------------------|---------------------------------|
E|---------------------------------|---------------------------------|
   1 + + + 2 + + + 3 + + + 4 + + +   1 + + + 2 + + + 3 + + + 4 + + +

[Outro] "First I'll buy some beads ..."
G|-------------------------------------------------|-------------------------------------------------|
D|--10-------10-10-------x--10---------------------|--------------------------------------8-----9----|
A|--------------------------------------x-----8----|--9--------9--9--------x--9-----9----------------| (x4)
E|-------------------------------------------------|-------------------------------------------------|
    1  +  +  +  2  +  +  +  3  +  +  +  4  +  +  +    1  +  +  +  2  +  +  +  3  +  +  +  4  +  +  + 

G|-------------------------------------------------|-------------------------------------------------|
D|--10-------10-10-------x--10----10---------------|--------------------------------------8-----9----|
A|--------------------------------------7-----8----|--9--------9--9--------x--9-----9----------------| (x4)
E|-------------------------------------------------|-------------------------------------------------|
    1  +  +  +  2  +  +  +  3  +  +  +  4  +  +  +    1  +  +  +  2  +  +  +  3  +  +  +  4  +  +  + 

G|-------------------------------------------------|-------------------------------------------------|
D|--10-------10-10-------x--10---------------------|--------------------------------------8-----9----|
A|--------------------------------------x-----8----|--9--------9--9--------x--9-----9----------------|
E|-------------------------------------------------|-------------------------------------------------|
    1  +  +  +  2  +  +  +  3  +  +  +  4  +  +  +    1  +  +  +  2  +  +  +  3  +  +  +  4  +  +  + 

G|-------------------------------------------------|-------------------------------------------------|
D|--10-------10-10-------x--10----10---------------|--------------------------------------8-----9----|
A|--------------------------------------7-----8----|--9--------9--9--------x--9-----9----------------| (x3)
E|-------------------------------------------------|-------------------------------------------------|
    1  +  +  +  2  +  +  +  3  +  +  +  4  +  +  +    1  +  +  +  2  +  +  +  3  +  +  +  4  +  +  + 

********************************

 |x Dead note
 |/ Slide up
 |p Pull-off

********************************

            
            
Suggest correction
Creating personal tab
Creating personal tab
You can edit any tab online and save it as your Personal.

You can edit, replace or remove any tab part or add personal notes – all changes will be seen only by you.

Personal tabs can be accessed anytime from any device, even offline.
Learn more »
Give kudos to tab author, rate the tab!
1 2 3 4 5
comments
print report bad tab
guest
You may want to rate the tab now too:
select rating
Wanna post a correction for this tab? Suggest correction