Oops, an error
Loading. Please wait.

Die My Bride Tab

version 1
version 1

Whole song

244 views 1 this week
no commentswrite comment
1 2 3 4 5
2 more votes to show rating
add to favorites
launch autoscroll
font size
0
reset
how to read this tab
guitar tuner
Autoscroll
slow
fast
+/-
esc
set tempo
stop
Help us to improve Ultimate-Guitar.com Take our survey!
×
Author
----------------------------------------------------------------------------
           Die My Bride - Frankenstien Drag Queens
----------------------------------------------------------------------------
Tabbed by: Daz
Email: Dariuswarr99@hotmail.com

Tuning: Standard

First Chorus

   N.C    E5   G5  E5      G5     E5    G5     E5   A5 G5 E5

E|-------------------------------------------------------------------------|
B|-------------------------------------------------------------------------|
G|--------------0-----------0------------0-----------2-0-------------------|
D|--------2--2--0-2----2-2--0-2----2--2--0-2----2-2--2-0---2---------------|
A|--------2--2----2----2-2----2----2--2----2----2-2--0-----2---------------|
E|--12\---0--0--3-0----0-0--3-0----0--0--3-0----0-0----3---0---------------|

Main Chorus

    E5   G5   E5       G5  E5       G5  E5     A5 G5 E5

E|-------------------------------------------------------------------------|
B|-------------------------------------------------------------------------|
G|--------0-0----------0-0----------0-0--------2-0-------------------------|
D|--2--2--0-0-2-2--2-2-0-0-2-2--2-2-0-0-2--2-2-2-0---2---------------------|
A|--2--2------2-2--2-2-----2-2--2-2-----2--2-2-0-----2---------------------|
E|--0--0--3-3-0-0--0-0-3-3-0-0--0-0-3-3-0--0-0---3---0---------------------|

Pre-Verse

    E5

E|----------------------------------3--------2\----------------------------|
B|-------------------------------------------------------------------------|
G|-------------------------------------------------------------------------|
D|---2---5------4--------2----------5--------4\----------------------------|
A|--(2)--------------------------------------------------------------------|
E|--(0)--------------------------------------------------------------------|

Outro

    E5   G5   E5       G5  E5       G5  E5     A5 G5 E5

E|---------------------------------------------------0---------------------|
B|-------------------------------------------------------------------------|
G|--------0-0----------0-0----------0-0--------2-0-------------------------|
D|--2--2--0-0-2-2--2-2-0-0-2-2--2-2-0-0-2--2-2-2-0---2---------------------|
A|--2--2------2-2--2-2-----2-2--2-2-----2--2-2-0-----2---------------------|
E|--0--0--3-3-0-0--0-0-3-3-0-0--0-0-3-3-0--0-0---3---0---------------------|

============================================================================
Suggest correction
Give kudos to tab author, rate the tab!
1 2 3 4 5
comments
print report bad tab
guest
You may want to rate the tab now too:
select rating
Wanna post a correction for this tab? Suggest correction