Oops, an error
Loading. Please wait.

Hit And Rape Tab

version 2
version 2

Whole song

Interactive

222 views 1 this week
no commentswrite comment
1 2 3 4 5
2 more votes to show rating
add to favorites
launch autoscroll
font size
0
reset
how to read this tab
guitar tuner
Autoscroll
slow
fast
+/-
esc
set tempo
stop
Help us to improve Ultimate-Guitar.com Take our survey!
×
Difficulty
novice
Intro
Guitar1
E--------------------------| x4
B--------------------------|   Then play after
G----7-8-9-9-9-9-----------| You will come back to the intro part later in
D----7-8-9-9-9-9-----------| The song.
A----5-6-7-7-7-7-----------|
E--------------------------|

Intro
Guitar2
E---10-11-12---------------| x4
B--------------------------|
G--------------------------|
D--------------------------|
A--------------------------|
E--------------------------|

Guitar1
E--------------------------| x4
B--------------------------|
G----7-8-9-9-9-9-----------|
D----7-8-9-9-9-9-----------|
A----5-6-7-7-7-7-----------|
E--------------------------|

Guitar 1 Main part of the song
E--------------------------| Play for a while while Guitar two does a bendy
B--------------------------| Thing
G--------------------------|
D--------------------------|
A--5-5-2-2-5-5-5-5-2-2-----|
E--3-3-0-0-3-3-3-3-0-0-----|

Guitar 2 Play twice with guitar 1
E-10-10-10-10-10-10-10-10-12--| x2
B-b--b--b--b--b--b--b--b--b---|
G-----------------------------|
D-----------------------------|
A-----------------------------|
E-----------------------------|

Guitar 1
E--------------------------|
B--------------------------|
G--------------------------|
D-8-8-8-8-8-8-8-8--4-5-----|
A-8-8-8-8-8-8-8-8--4-5-----|
E-6-6-6-6-6-6-6-6--2-3-----|

Guitar2 solo
E-10-9-8-7--10-9-8-7--10-9-8-7--10-9-10-12--------|
B-------------------------------------------------|
G-------------------------------------------------|
D-------------------------------------------------|
A-------------------------------------------------|
E-------------------------------------------------|


Okay i think thats all of it.
You will need to figure out where everything goes but you'll do it.
Theres some type of foot pedal used but i can't figure it out.
Good luck.
Thanks,Joey.
Suggest correction
Give kudos to tab author, rate the tab!
1 2 3 4 5
comments
print report bad tab
guest
You may want to rate the tab now too:
select rating
Wanna post a correction for this tab? Suggest correction