Oops, an error
Loading. Please wait.

Hit And Rape Tab

version 3
version 3

Whole song

Interactive

96 views 1 this week
no commentswrite comment
1 2 3 4 5
please rate
add to favorites
launch autoscroll
font size
0
reset
how to read this tab
guitar tuner
Autoscroll
slow
fast
+/-
esc
set tempo
stop
Help us to improve Ultimate-Guitar.com Take our survey!
×
Author
I didn't see any other guitar tabs for this on the net,
I think I saw a few bass tabs but anyway I thought I'd
have a go at tabbing it myself. I'm not sure on the
actual strumming patterns on some bits so listen to the
song for them.

Intro
|---------------------------------------|
|---------------------------------------|
|---------------------------------------|
|-7-8-9---------------------------------|
|-5-6-7---------------------------------|
|---------------------------------------|
at the same time lead plays something like:
|---------------------------------------|
|-16b-16b-16b---------------------------|
|---------------------------------------|
|---------------------------------------|
|---------------------------------------|
|---------------------------------------|

Riff 2
|---------------------------------------|
|---------------------------------------|
|---------------------------------------|
|-7-8-9-9999999-------------------------|
|-5-6-7-7777777-------------------------|
|---------------------------------------|

Riff 3
|---------------------------------------|
|---------------------------------------|
|---------------------------------------|
|---------------------------------------|
|-5-5-2-25-555-22-----------------------|
|-3-3-0-03-333-00-----------------------|

Riff 4
|---------------------------------------|
|---------------------------------------|
|---------------------------------------|
|---------------------------------------|
|-88888888-4-5--4-5---------------------|
|-66666666-2-3--2-3---------------------|

|---------------------------------------|
|-15b--14b--13b--12b--------------------|
|---------------------------------------|
|---------------------------------------|
|---------------------------------------|
|---------------------------------------|
x3 then:
|---------------------------------------|
|---------------------------------------|
|---------------------------------------|
|---------------------------------------|
|---------------------------------------|
|-15b--14b--15b--16b--------------------|

Sorry but you're gonna have to work out the order yourself!
Suggest correction
Give kudos to tab author, rate the tab!
1 2 3 4 5
comments
print report bad tab
guest
You may want to rate the tab now too:
select rating
Please do not post tabs as comments. Select "correction" instead!