Oops, an error
Loading. Please wait.

I Dont Wanna Be Your Friend Bass Tab

version 1
version 1

Whole song

Interactive

149 views 1 this week
no commentswrite comment
1 2 3 4 5
please rate
add to favorites
launch autoscroll
font size
0
reset
guitar tuner
Tab Pro tools
  • play this tab
  • loop segment
  • change instrument
  • show fretboard
  • metronome
×
Best way to learn
"I Dont Wanna Be Your Friend"
Autoscroll
slow
fast
+/-
esc
set tempo
stop
Contributor
Difficulty
novice
I Don't Wanna Be Your Friend
Frankenstein Drag Queens From Planet 13
Night Of The Living Drag Queens

Intro
G|---------------------------|
D|---------------------------|
A|33-3333-00-0000------------|
E|----------------33333333-3-|

Verse - 2 Times
G|----------------------------|
D|----------------------------|
A|----------------------------|
E|3333333333333333000000000000|

Chorus - 1 Time
G|---------------------------|
D|---------------------------|
A|33-3333-00-0000------------|
E|----------------33333333-3-|

Verse - 4 Times
G|----------------------------|
D|----------------------------|
A|----------------------------|
E|3333333333333333000000000000|

Chorus
Play 1 Time
G|---------------------------------|
D|---------------------------------|
A|33-3333-00-0000------------------|
E|----------------3333333333333333-|
Then
G|---------------------------|
D|---------------------------|
A|33-3333-00-0000------------|
E|----------------33333333-3-|

Solo
Play 2 Times
G|----------------------------|
D|----------------------------|
A|----------------------------|
E|3333333333333333000000000000
Then
G|---------------------------|
D|---------------------------|
A|33-3333-00-0000------------|
E|----------------33333333-3-|

Verse - 4 Times
G|----------------------------|
D|----------------------------|
A|----------------------------|
E|3333333333333333000000000000

Chorus
Play 3 Times
G|---------------------------------|
D|---------------------------------|
A|33-3333-00-0000------------------|
E|----------------3333333333333333-|
Then
G|-----------------------|
D|-----------------------|
A|33-3333-00-0000--------|
E|----------------3-3-3~-|
comments
We did not receive enough feedback on this tab! Please rate:
print report bad tab
1 2 3 4 5
I want to post or [tab]
guest
You may want to rate the tab now too:
select rating
Please do not post tabs as comments. Select "correction" instead!