Oops, an error
Loading. Please wait.

Planet Of The Apes Bass Tab

version 1
version 1

Whole song

Interactive

225 views 1 this week
2 commentsread comments
1 2 3 4 5
1 last vote to show rating
add to favorites
launch autoscroll
font size
0
reset
guitar tuner
Autoscroll
slow
fast
+/-
esc
set tempo
stop
Help us to improve Ultimate-Guitar.com Take our survey!
×
Author
  INTRO
G|--------------------|
D|--------------------|
A|------3-2-0----3--2-| X2
E|-3------------------|

G|-------------------------------------|
D|-------------------------------------|
A|--------------3322-00000000-33332222-| X2
E|-33333333-3333-----------------------|


  VERSE 1
G|-------------------------------------|
D|-------------------------------------|
A|-------------------00000000-33333333-| X2
E|-33333333-33333333-------------------|


  PRE CHORUS 1
G|-------------------------------------|
D|-------------------------------------|
A|----------33333333-55555555-55555555-| X1
E|-11111111----------------------------|

G|--------------------------------------|
D|--------------------------------------|
A|----------33333333-5-3-55555555-55555-| X1
E|-11111111-----------------------------|


  CHORUS 1
G|-------------------------------------|
D|-------------------------------------|
A|--------------3322-00000000-33332222-| X4
E|-33333333-3333-----------------------|

G|---------------------|
D|---------------------|
A|---------------------| X1
E|-3-----------------3-|


  VERSE 2
G|-------------------------------------|
D|-------------------------------------|
A|-------------------00000000-33333333-| X2
E|-33333333-33333333-------------------|


  PRE CHORUS 2
G|-------------------------------------|
D|-------------------------------------|
A|----------33333333-55555555-55555555-| X1
E|-11111111----------------------------|

G|--------------------------------------|
D|--------------------------------------|
A|----------33333333-5-3-55555555-55555-| X1
E|-11111111-----------------------------|


  CHORUS 2/"SOLO" THINGY/CALM PART/CHORUS 3
G|-------------------------------------|
D|-------------------------------------|
A|--------------3322-00000000-33332222-| X16
E|-33333333-3333-----------------------|


  OUTRO
G|-------------------------------------|
D|-------------------------------------|
A|--------------3322-00000000-33332222-| X1
E|-33333333-3333-----------------------|

G|--------------------------------------|
D|--------------------------------------|
A|--------------3222-00000000-3---2-----| X1
E|-33333333-3333----------------------3-|
Suggest correction
Give kudos to tab author, rate the tab!
1 2 3 4 5
comments
print report bad tab
2 comments total.
0 reply
wednesday13dk 207 Oct 10, 2006 11:44 AM

The intro is not right.

0 reply
BroDD 368 Oct 16, 2006 09:54 AM

Ok, so how should the intro be?

guest
You may want to rate the tab now too:
select rating
Wanna post a correction for this tab? Suggest correction